  0
SECTION
  2
HEADER
  9
$ACADVER
  1
AC1015
  9
$ACADMAINTVER
 70
     6
  9
$DWGCODEPAGE
  3
ANSI_1252
  9
$INSBASE
 10
0.0
 20
0.0
 30
0.0
  9
$EXTMIN
 10
0.7692307692
 20
-0.5128205128
 30
0.0
  9
$EXTMAX
 10
165.7692307692
 20
20.5128205128
 30
0.0
  9
$LIMMIN
 10
0.0
 20
0.0
  9
$LIMMAX
 10
420.0
 20
297.0
  9
$ORTHOMODE
 70
     0
  9
$REGENMODE
 70
     1
  9
$FILLMODE
 70
     1
  9
$QTEXTMODE
 70
     0
  9
$MIRRTEXT
 70
     1
  9
$LTSCALE
 40
1.0
  9
$ATTMODE
 70
     1
  9
$TEXTSIZE
 40
3.5
  9
$TRACEWID
 40
1.0
  9
$TEXTSTYLE
  7
Standard
  9
$CLAYER
  8
0
  9
$CELTYPE
  6
ByLayer
  9
$CECOLOR
 62
   256
  9
$CELTSCALE
 40
1.0
  9
$DISPSILH
 70
     0
  9
$DIMSCALE
 40
1.0
  9
$DIMASZ
 40
3.302
  9
$DIMEXO
 40
1.0
  9
$DIMDLI
 40
3.75
  9
$DIMRND
 40
0.0
  9
$DIMDLE
 40
0.0
  9
$DIMEXE
 40
1.0
  9
$DIMTP
 40
0.0
  9
$DIMTM
 40
0.0
  9
$DIMTXT
 40
3.5
  9
$DIMCEN
 40
2.5
  9
$DIMTSZ
 40
0.0
  9
$DIMTOL
 70
     0
  9
$DIMLIM
 70
     0
  9
$DIMTIH
 70
     1
  9
$DIMTOH
 70
     1
  9
$DIMSE1
 70
     0
  9
$DIMSE2
 70
     0
  9
$DIMTAD
 70
     1
  9
$DIMZIN
 70
     1
  9
$DIMBLK
  1

  9
$DIMASO
 70
     1
  9
$DIMSHO
 70
     1
  9
$DIMPOST
  1

  9
$DIMAPOST
  1

  9
$DIMALT
 70
     0
  9
$DIMALTD
 70
     3
  9
$DIMALTF
 40
0.0393700787
  9
$DIMLFAC
 40
1.0
  9
$DIMTOFL
 70
     1
  9
$DIMTVP
 40
0.0
  9
$DIMTIX
 70
     0
  9
$DIMSOXD
 70
     0
  9
$DIMSAH
 70
     0
  9
$DIMBLK1
  1

  9
$DIMBLK2
  1

  9
$DIMSTYLE
  2
ISO-25
  9
$DIMCLRD
 70
     0
  9
$DIMCLRE
 70
     0
  9
$DIMCLRT
 70
     0
  9
$DIMTFAC
 40
1.0
  9
$DIMGAP
 40
1.524
  9
$DIMJUST
 70
     0
  9
$DIMSD1
 70
     0
  9
$DIMSD2
 70
     0
  9
$DIMTOLJ
 70
     0
  9
$DIMTZIN
 70
     1
  9
$DIMALTZ
 70
     0
  9
$DIMALTTZ
 70
     0
  9
$DIMUPT
 70
     0
  9
$DIMDEC
 70
     2
  9
$DIMTDEC
 70
     2
  9
$DIMALTU
 70
     2
  9
$DIMALTTD
 70
     3
  9
$DIMTXSTY
  7
Standard
  9
$DIMAUNIT
 70
     0
  9
$DIMADEC
 70
     2
  9
$DIMALTRND
 40
0.0
  9
$DIMAZIN
 70
     0
  9
$DIMDSEP
 70
    44
  9
$DIMATFIT
 70
     3
  9
$DIMFRAC
 70
     0
  9
$DIMLDRBLK
  1

  9
$DIMLUNIT
 70
     2
  9
$DIMLWD
 70
    -2
  9
$DIMLWE
 70
    -2
  9
$DIMTMOVE
 70
     0
  9
$LUNITS
 70
     2
  9
$LUPREC
 70
     2
  9
$SKETCHINC
 40
1.0
  9
$FILLETRAD
 40
10.0
  9
$AUNITS
 70
     0
  9
$AUPREC
 70
     2
  9
$MENU
  1
.
  9
$ELEVATION
 40
0.0
  9
$PELEVATION
 40
0.0
  9
$THICKNESS
 40
0.0
  9
$LIMCHECK
 70
     0
  9
$CHAMFERA
 40
0.0
  9
$CHAMFERB
 40
0.0
  9
$CHAMFERC
 40
0.0
  9
$CHAMFERD
 40
0.0
  9
$SKPOLY
 70
     0
  9
$TDCREATE
 40
2458509.438822106
  9
$TDUCREATE
 40
2458509.39715544
  9
$TDUPDATE
 40
2458509.438861111
  9
$TDUUPDATE
 40
2458509.397194445
  9
$TDINDWG
 40
0.0000000116
  9
$TDUSRTIMER
 40
0.0000000116
  9
$USRTIMER
 70
     1
  9
$ANGBASE
 50
0.0
  9
$ANGDIR
 70
     0
  9
$PDMODE
 70
     0
  9
$PDSIZE
 40
-1.0
  9
$PLINEWID
 40
0.0
  9
$SPLFRAME
 70
     0
  9
$SPLINETYPE
 70
     6
  9
$SPLINESEGS
 70
     8
  9
$HANDSEED
  5
136
  9
$SURFTAB1
 70
     6
  9
$SURFTAB2
 70
     6
  9
$SURFTYPE
 70
     6
  9
$SURFU
 70
     6
  9
$SURFV
 70
     6
  9
$UCSBASE
  2

  9
$UCSNAME
  2

  9
$UCSORG
 10
0.0
 20
0.0
 30
0.0
  9
$UCSXDIR
 10
1.0
 20
0.0
 30
0.0
  9
$UCSYDIR
 10
0.0
 20
1.0
 30
0.0
  9
$UCSORTHOREF
  2

  9
$UCSORTHOVIEW
 70
     0
  9
$UCSORGTOP
 10
0.0
 20
0.0
 30
0.0
  9
$UCSORGBOTTOM
 10
0.0
 20
0.0
 30
0.0
  9
$UCSORGLEFT
 10
0.0
 20
0.0
 30
0.0
  9
$UCSORGRIGHT
 10
0.0
 20
0.0
 30
0.0
  9
$UCSORGFRONT
 10
0.0
 20
0.0
 30
0.0
  9
$UCSORGBACK
 10
0.0
 20
0.0
 30
0.0
  9
$PUCSBASE
  2

  9
$PUCSNAME
  2

  9
$PUCSORG
 10
0.0
 20
0.0
 30
0.0
  9
$PUCSXDIR
 10
1.0
 20
0.0
 30
0.0
  9
$PUCSYDIR
 10
0.0
 20
1.0
 30
0.0
  9
$PUCSORTHOREF
  2

  9
$PUCSORTHOVIEW
 70
     0
  9
$PUCSORGTOP
 10
0.0
 20
0.0
 30
0.0
  9
$PUCSORGBOTTOM
 10
0.0
 20
0.0
 30
0.0
  9
$PUCSORGLEFT
 10
0.0
 20
0.0
 30
0.0
  9
$PUCSORGRIGHT
 10
0.0
 20
0.0
 30
0.0
  9
$PUCSORGFRONT
 10
0.0
 20
0.0
 30
0.0
  9
$PUCSORGBACK
 10
0.0
 20
0.0
 30
0.0
  9
$USERI1
 70
     0
  9
$USERI2
 70
     0
  9
$USERI3
 70
     0
  9
$USERI4
 70
     0
  9
$USERI5
 70
     0
  9
$USERR1
 40
0.0
  9
$USERR2
 40
0.0
  9
$USERR3
 40
0.0
  9
$USERR4
 40
0.0
  9
$USERR5
 40
0.0
  9
$WORLDVIEW
 70
     1
  9
$SHADEDGE
 70
     3
  9
$SHADEDIF
 70
    70
  9
$TILEMODE
 70
     1
  9
$MAXACTVP
 70
    64
  9
$PINSBASE
 10
0.0
 20
0.0
 30
0.0
  9
$PLIMCHECK
 70
     0
  9
$PEXTMIN
 10
1.0000000000E+20
 20
1.0000000000E+20
 30
1.0000000000E+20
  9
$PEXTMAX
 10
-1.0000000000E+20
 20
-1.0000000000E+20
 30
-1.0000000000E+20
  9
$PLIMMIN
 10
0.0
 20
0.0
  9
$PLIMMAX
 10
420.0
 20
297.0
  9
$UNITMODE
 70
     0
  9
$VISRETAIN
 70
     1
  9
$PLINEGEN
 70
     0
  9
$PSLTSCALE
 70
     1
  9
$TREEDEPTH
 70
  3020
  9
$CMLSTYLE
  2
Standard
  9
$CMLJUST
 70
     0
  9
$CMLSCALE
 40
20.0
  9
$PROXYGRAPHICS
 70
     1
  9
$MEASUREMENT
 70
     1
  9
$CELWEIGHT
370
    -1
  9
$ENDCAPS
280
     0
  9
$JOINSTYLE
280
     0
  9
$LWDISPLAY
290
     1
  9
$INSUNITS
 70
     4
  9
$HYPERLINKBASE
  1

  9
$STYLESHEET
  1

  9
$XEDIT
290
     1
  9
$CEPSNTYPE
380
     0
  9
$PSTYLEMODE
290
     1
  9
$FINGERPRINTGUID
  2
{FF75080D-F909-49BF-89C6-2DF124281FB8}
  9
$VERSIONGUID
  2
{FAEB1C32-E019-11D5-929B-00C0DF256EC4}
  9
$EXTNAMES
290
     1
  9
$PSVPSCALE
 40
0.0
  9
$OLESTARTUP
290
     0
  0
ENDSEC
  0
SECTION
  2
CLASSES
  0
CLASS
  1
ACDBDICTIONARYWDFLT
  2
AcDbDictionaryWithDefault
  3
ObjectDBX Classes
 90
        0
280
     0
281
     0
  0
CLASS
  1
VISUALSTYLE
  2
AcDbVisualStyle
  3
ObjectDBX Classes
 90
     4095
280
     0
281
     0
  0
CLASS
  1
MATERIAL
  2
AcDbMaterial
  3
ObjectDBX Classes
 90
     1153
280
     0
281
     0
  0
CLASS
  1
SCALE
  2
AcDbScale
  3
ObjectDBX Classes
 90
     1153
280
     0
281
     0
  0
CLASS
  1
TABLESTYLE
  2
AcDbTableStyle
  3
ObjectDBX Classes
 90
     4095
280
     0
281
     0
  0
CLASS
  1
MLEADERSTYLE
  2
AcDbMLeaderStyle
  3
ACDB_MLEADERSTYLE_CLASS
 90
     4095
280
     0
281
     0
  0
CLASS
  1
SUN
  2
AcDbSun
  3
SCENEOE
 90
     1153
280
     0
281
     0
  0
CLASS
  1
ACDBPLACEHOLDER
  2
AcDbPlaceHolder
  3
ObjectDBX Classes
 90
        0
280
     0
281
     0
  0
CLASS
  1
LAYOUT
  2
AcDbLayout
  3
ObjectDBX Classes
 90
        0
280
     0
281
     0
  0
ENDSEC
  0
SECTION
  2
TABLES
  0
TABLE
  2
VPORT
  5
8
330
0
100
AcDbSymbolTable
 70
     1
  0
VPORT
  5
29
330
8
100
AcDbSymbolTableRecord
100
AcDbViewportTableRecord
  2
*Active
 70
     0
 10
0.0
 20
0.0
 11
1.0
 21
1.0
 12
83.2692307692
 22
10.0
 13
0.0
 23
0.0
 14
10.0
 24
10.0
 15
10.0
 25
10.0
 16
0.0
 26
0.0
 36
1.0
 17
0.0
 27
0.0
 37
0.0
 40
21.4461538462
 41
7.8475609756
 42
50.0
 43
0.0
 44
0.0
 50
0.0
 51
0.0
 71
     0
 72
   100
 73
     1
 74
     3
 75
     0
 76
     0
 77
     0
 78
     0
281
     0
 65
     1
110
0.0
120
0.0
130
0.0
111
1.0
121
0.0
131
0.0
112
0.0
122
1.0
132
0.0
 79
     0
146
0.0
  0
ENDTAB
  0
TABLE
  2
LTYPE
  5
5
330
0
100
AcDbSymbolTable
 70
     6
  0
LTYPE
  5
14
330
5
100
AcDbSymbolTableRecord
100
AcDbLinetypeTableRecord
  2
ByBlock
 70
     0
  3

 72
    65
 73
     0
 40
0.0
  0
LTYPE
  5
15
330
5
100
AcDbSymbolTableRecord
100
AcDbLinetypeTableRecord
  2
ByLayer
 70
     0
  3

 72
    65
 73
     0
 40
0.0
  0
LTYPE
  5
16
330
5
100
AcDbSymbolTableRecord
100
AcDbLinetypeTableRecord
  2
Continuous
 70
     0
  3
Solid line
 72
    65
 73
     0
 40
0.0
  0
LTYPE
  5
6E
330
5
100
AcDbSymbolTableRecord
100
AcDbLinetypeTableRecord
  2
HIDDEN
 70
     0
  3
Hidden __ __ __ __ __ __ __ __ __ __ __ __ __ __
 72
    65
 73
     2
 40
1.905
 49
1.27
 74
     0
 49
-0.635
 74
     0
  0
LTYPE
  5
6F
330
5
100
AcDbSymbolTableRecord
100
AcDbLinetypeTableRecord
  2
PHANTOM
 70
     0
  3
Phantom ______  __  __  ______  __  __  ______
 72
    65
 73
     6
 40
12.7
 49
6.35
 74
     0
 49
-1.27
 74
     0
 49
1.27
 74
     0
 49
-1.27
 74
     0
 49
1.27
 74
     0
 49
-1.27
 74
     0
  0
LTYPE
  5
70
330
5
100
AcDbSymbolTableRecord
100
AcDbLinetypeTableRecord
  2
CENTER
 70
     0
  3
Center ____ _ ____ _ ____ _ ____ _ ____ _ ____
 72
    65
 73
     4
 40
10.16
 49
6.35
 74
     0
 49
-1.27
 74
     0
 49
1.27
 74
     0
 49
-1.27
 74
     0
  0
LTYPE
  5
71
330
5
100
AcDbSymbolTableRecord
100
AcDbLinetypeTableRecord
  2
CENTERX2
 70
     0
  3
Center (2x) ________  __  ________  __  _____
 72
    65
 73
     4
 40
20.32
 49
12.7
 74
     0
 49
-2.54
 74
     0
 49
2.54
 74
     0
 49
-2.54
 74
     0
  0
LTYPE
  5
72
330
5
100
AcDbSymbolTableRecord
100
AcDbLinetypeTableRecord
  2
DOT2
 70
     0
  3
Dot (.5x) ........................................
 72
    65
 73
     2
 40
0.635
 49
0.0
 74
     0
 49
-0.635
 74
     0
  0
ENDTAB
  0
TABLE
  2
LAYER
  5
2
330
0
100
AcDbSymbolTable
 70
     1
  0
LAYER
  5
10
330
2
100
AcDbSymbolTableRecord
100
AcDbLayerTableRecord
  2
0
 70
     0
 62
     7
  6
Continuous
370
    -3
390
F
  0
ENDTAB
  0
TABLE
  2
STYLE
  5
3
330
0
100
AcDbSymbolTable
 70
     2
  0
STYLE
  5
11
330
3
100
AcDbSymbolTableRecord
100
AcDbTextStyleTableRecord
  2
Standard
 70
     0
 40
0.0
 41
1.0
 50
0.0
 71
     0
 42
3.5
  3
txt
  4

  0
STYLE
  5
133
330
3
100
AcDbSymbolTableRecord
100
AcDbTextStyleTableRecord
  2
SLDTEXTSTYLE0
 70
     0
 40
0.0
 41
0.7
 50
0.0
 71
     0
 42
3.5
  3
TXT
  4

  0
ENDTAB
  0
TABLE
  2
VIEW
  5
6
330
0
100
AcDbSymbolTable
 70
     0
  0
ENDTAB
  0
TABLE
  2
UCS
  5
7
330
0
100
AcDbSymbolTable
 70
     0
  0
ENDTAB
  0
TABLE
  2
APPID
  5
9
330
0
100
AcDbSymbolTable
 70
     1
  0
APPID
  5
12
330
9
100
AcDbSymbolTableRecord
100
AcDbRegAppTableRecord
  2
ACAD
 70
     0
  0
ENDTAB
  0
TABLE
  2
DIMSTYLE
  5
A
330
0
100
AcDbSymbolTable
 70
     1
100
AcDbDimStyleTable
  0
DIMSTYLE
105
27
330
A
100
AcDbSymbolTableRecord
100
AcDbDimStyleTableRecord
  2
ISO-25
 70
     0
 41
2.5
 42
0.625
 43
3.75
 44
1.25
 73
     0
 74
     0
 77
     1
 78
     8
140
2.5
141
2.5
143
0.0393700787
147
0.625
171
     3
172
     1
178
     0
271
     2
272
     2
274
     3
278
    44
283
     0
284
     8
340
11
  0
ENDTAB
  0
TABLE
  2
BLOCK_RECORD
  5
1
330
0
100
AcDbSymbolTable
 70
     1
  0
BLOCK_RECORD
  5
1F
330
1
100
AcDbSymbolTableRecord
100
AcDbBlockTableRecord
  2
*Model_Space
340
22
  0
BLOCK_RECORD
  5
1B
330
1
100
AcDbSymbolTableRecord
100
AcDbBlockTableRecord
  2
*Paper_Space
340
1E
  0
BLOCK_RECORD
  5
23
330
1
100
AcDbSymbolTableRecord
100
AcDbBlockTableRecord
  2
*Paper_Space0
340
26
  0
ENDTAB
  0
ENDSEC
  0
SECTION
  2
BLOCKS
  0
BLOCK
  5
20
330
1F
100
AcDbEntity
  8
0
100
AcDbBlockBegin
  2
*Model_Space
 70
     0
 10
0.0
 20
0.0
 30
0.0
  3
*Model_Space
  1

  0
ENDBLK
  5
21
330
1F
100
AcDbEntity
  8
0
100
AcDbBlockEnd
  0
BLOCK
  5
1C
330
1B
100
AcDbEntity
 67
     1
  8
0
100
AcDbBlockBegin
  2
*Paper_Space
 70
     0
 10
0.0
 20
0.0
 30
0.0
  3
*Paper_Space
  1

  0
ENDBLK
  5
1D
330
1B
100
AcDbEntity
 67
     1
  8
0
100
AcDbBlockEnd
  0
BLOCK
  5
24
330
23
100
AcDbEntity
  8
0
100
AcDbBlockBegin
  2
*Paper_Space0
 70
     0
 10
0.0
 20
0.0
 30
0.0
  3
*Paper_Space0
  1

  0
ENDBLK
  5
25
330
23
100
AcDbEntity
  8
0
100
AcDbBlockEnd
  0
ENDSEC
  0
SECTION
  2
ENTITIES
  0
SPLINE
  5
73
330
1F
100
AcDbEntity
  8
0
  6
Continuous
 62
     7
370
    25
100
AcDbSpline
210
0.0
220
0.0
230
1.0
 70
     8
 71
     3
 72
    23
 73
    19
 74
     0
 42
0.000000001
 43
0.00000001
 40
0.0
 40
0.0
 40
0.0
 40
0.0
 40
0.1055399964402561
 40
0.2020864154635842
 40
0.2906848989424226
 40
0.3705526096211897
 40
0.4426702615663785
 40
0.5076749275738732
 40
0.5655732034810436
 40
0.6164546657486225
 40
0.6633313570051043
 40
0.7088620244966131
 40
0.7534118003496287
 40
0.7985150107871087
 40
0.8450643214401187
 40
0.8938731190084055
 40
0.9447078060036515
 40
1.0
 40
1.0
 40
1.0
 40
1.0
 10
157.5520833333333
 20
12.30769230769231
 30
0.0
 10
157.7230294513848
 20
12.3096176177673
 30
0.0
 10
158.0503545357095
 20
12.31330417286332
 30
0.0
 10
158.5210909982385
 20
12.33040394350576
 30
0.0
 10
158.9486319708839
 20
12.3716059411391
 30
0.0
 10
159.3348134588647
 20
12.42366312528362
 30
0.0
 10
159.6815786923397
 20
12.48377066214696
 30
0.0
 10
159.9858346477609
 20
12.56990841185632
 30
0.0
 10
160.2522694450174
 20
12.6622071911891
 30
0.0
 10
160.4777258217859
 20
12.77691063142038
 30
0.0
 10
160.6703505696741
 20
12.9073533211065
 30
0.0
 10
160.8366697106
 20
13.05553945921578
 30
0.0
 10
160.9742394874055
 20
13.22704604517343
 30
0.0
 10
161.0874664307386
 20
13.41721226980463
 30
0.0
 10
161.1755446824757
 20
13.62772010654609
 30
0.0
 10
161.2398350586392
 20
13.85625865633151
 30
0.0
 10
161.2757638717144
 20
14.10543126721579
 30
0.0
 10
161.279897604042
 20
14.2773942968413
 30
0.0
 10
161.2820512820513
 20
14.36698717948718
 30
0.0
  0
SPLINE
  5
74
330
1F
100
AcDbEntity
  8
0
  6
Continuous
 62
     7
370
    25
100
AcDbSpline
210
0.0
220
0.0
230
1.0
 70
     8
 71
     3
 72
    23
 73
    19
 74
     0
 42
0.000000001
 43
0.00000001
 40
0.0
 40
0.0
 40
0.0
 40
0.0
 40
0.0637689599577395
 40
0.1252623047603744
 40
0.1854135826663905
 40
0.2468067624960853
 40
0.3094223888496989
 40
0.3725326822170115
 40
0.437733250736861
 40
0.505749516742636
 40
0.5440132631112707
 40
0.5883695992066325
 40
0.6403890193945104
 40
0.697897400587707
 40
0.7632716192950975
 40
0.834978603839311
 40
0.9138736558434396
 40
1.0
 40
1.0
 40
1.0
 40
1.0
 10
161.2820512820513
 20
14.36698717948718
 30
0.0
 10
161.2779795564509
 20
14.472982100266
 30
0.0
 10
161.2699814060437
 20
14.68118948013306
 30
0.0
 10
161.1906149063144
 20
14.98093510065323
 30
0.0
 10
161.0642805824084
 20
15.25837018059313
 30
0.0
 10
160.8911108265329
 20
15.5122411995342
 30
0.0
 10
160.6730260325269
 20
15.73480205993363
 30
0.0
 10
160.4227565250633
 20
15.93099123082489
 30
0.0
 10
160.134900884113
 20
16.0861229474524
 30
0.0
 10
159.8683682220521
 20
16.18844617598688
 30
0.0
 10
159.6258857993519
 20
16.24966721919071
 30
0.0
 10
159.4070530630604
 20
16.2952885991608
 30
0.0
 10
159.1536434368957
 20
16.32762178060482
 30
0.0
 10
158.8654656104427
 20
16.36191687490602
 30
0.0
 10
158.5432541587881
 20
16.38415550759053
 30
0.0
 10
158.1852528368032
 20
16.40038527675354
 30
0.0
 10
157.7924898216185
 20
16.40702567263402
 30
0.0
 10
157.5186966969952
 20
16.40914849019313
 30
0.0
 10
157.3758012820513
 20
16.41025641025641
 30
0.0
  0
SPLINE
  5
79
330
1F
100
AcDbEntity
  8
0
  6
Continuous
 62
     7
370
    25
100
AcDbSpline
210
0.0
220
0.0
230
1.0
 70
     8
 71
     3
 72
    31
 73
    27
 74
     0
 42
0.000000001
 43
0.00000001
 40
0.0
 40
0.0
 40
0.0
 40
0.0
 40
0.0728890266200374
 40
0.1401861299444935
 40
0.2022774341249596
 40
0.2588951317514629
 40
0.3104829424654774
 40
0.3570952441313342
 40
0.3985135666534654
 40
0.4350375108701153
 40
0.4692514858292865
 40
0.5028050278902743
 40
0.5362104463185616
 40
0.5693793599392063
 40
0.6028014750483922
 40
0.6366657983367765
 40
0.6709286568940432
 40
0.7058030002293127
 40
0.7411890612458776
 40
0.7763043110764611
 40
0.8120043009129355
 40
0.8479689758088951
 40
0.8845217611964793
 40
0.9219741585442051
 40
0.960198175809608
 40
0.9999999999999999
 40
0.9999999999999999
 40
0.9999999999999999
 40
0.9999999999999999
 10
156.7467948717949
 20
20.0
 30
0.0
 10
157.0232695601375
 20
19.99901867353004
 30
0.0
 10
157.5550082646258
 20
19.99713130630325
 30
0.0
 10
158.3217464334139
 20
19.9673536508244
 30
0.0
 10
159.0261008851504
 20
19.92591559917153
 30
0.0
 10
159.6691144803108
 20
19.86268003251044
 30
0.0
 10
160.2505121270813
 20
19.77883731482318
 30
0.0
 10
160.7708765217944
 20
19.68000062480449
 30
0.0
 10
161.2301924547115
 20
19.56735502653575
 30
0.0
 10
161.632333621375
 20
19.42698972363287
 30
0.0
 10
161.9952461388064
 20
19.26865979001824
 30
0.0
 10
162.3335310595607
 20
19.08673579305984
 30
0.0
 10
162.6546514520349
 20
18.88324351399821
 30
0.0
 10
162.9564609732256
 20
18.65282852015898
 30
0.0
 10
163.2415824188307
 20
18.39963592051614
 30
0.0
 10
163.5105536875519
 20
18.12341085185717
 30
0.0
 10
163.7595739660587
 20
17.821811039368
 30
0.0
 10
163.9871013106788
 20
17.49674221112651
 30
0.0
 10
164.194474170531
 20
17.15477725809223
 30
0.0
 10
164.3777482850785
 20
16.79544666015286
 30
0.0
 10
164.5267870996498
 20
16.41850052681033
 30
0.0
 10
164.6584788689302
 20
16.02938654462939
 30
0.0
 10
164.7533321839827
 20
15.62254225289581
 30
0.0
 10
164.819301277018
 20
15.20192834946667
 30
0.0
 10
164.8676012662236
 20
14.76606422874415
 30
0.0
 10
164.8703782846906
 20
14.46995749727058
 30
0.0
 10
164.8717948717949
 20
14.31891025641026
 30
0.0
  0
SPLINE
  5
7A
330
1F
100
AcDbEntity
  8
0
  6
Continuous
 62
     7
370
    25
100
AcDbSpline
210
0.0
220
0.0
230
1.0
 70
     8
 71
     3
 72
    23
 73
    19
 74
     0
 42
0.000000001
 43
0.00000001
 40
0.0
 40
0.0
 40
0.0
 40
0.0
 40
0.0687412630793656
 40
0.1347890881950341
 40
0.1985360495606904
 40
0.2603856506059199
 40
0.320961578232196
 40
0.379903849584148
 40
0.4385029357752663
 40
0.4961543439762683
 40
0.5542654832084987
 40
0.6127487608156935
 40
0.6725134425261794
 40
0.733646401897972
 40
0.7967896194814528
 40
0.861935699041022
 40
0.9293977347748976
 40
0.9999999999999999
 40
0.9999999999999999
 40
0.9999999999999999
 40
0.9999999999999999
 10
164.8717948717949
 20
14.31891025641026
 30
0.0
 10
164.8681150879218
 20
14.16125163590072
 30
0.0
 10
164.86089970242
 20
13.8521118157605
 30
0.0
 10
164.8220337107766
 20
13.39801063328445
 30
0.0
 10
164.7509988870777
 20
12.96355838489771
 30
0.0
 10
164.6434063123721
 20
12.55002709333396
 30
0.0
 10
164.5197426228066
 20
12.15226987956953
 30
0.0
 10
164.3553016372016
 20
11.7776256129225
 30
0.0
 10
164.1697137321547
 20
11.42064563529402
 30
0.0
 10
163.9492963996369
 20
11.08637956377005
 30
0.0
 10
163.7073991453215
 20
10.76740268107141
 30
0.0
 10
163.4260777270011
 20
10.47593617491902
 30
0.0
 10
163.1235574513625
 20
10.19631482421276
 30
0.0
 10
162.7828325519532
 20
9.94605316169533
 30
0.0
 10
162.4189224988499
 20
9.708229398076911
 30
0.0
 10
162.0245967821723
 20
9.492697733357524
 30
0.0
 10
161.602428906783
 20
9.29404019775655
 30
0.0
 10
161.3056239833155
 20
9.183255033331745
 30
0.0
 10
161.1538461538462
 20
9.126602564102564
 30
0.0
  0
SPLINE
  5
97
330
1F
100
AcDbEntity
  8
0
  6
Continuous
 62
     7
370
    25
100
AcDbSpline
210
0.0
220
0.0
230
1.0
 70
     8
 71
     3
 72
    15
 73
    11
 74
     0
 42
0.000000001
 43
0.00000001
 40
0.0
 40
0.0
 40
0.0
 40
0.0
 40
0.1624203072014364
 40
0.3118243397330471
 40
0.4484327667925793
 40
0.5733811968860472
 40
0.6890771468735443
 40
0.7975729005012498
 40
0.9002930430775775
 40
1.0
 40
1.0
 40
1.0
 40
1.0
 10
119.8798076923077
 20
14.87179487179487
 30
0.0
 10
119.7648240100022
 20
15.03399130946545
 30
0.0
 10
119.5440713748621
 20
15.34538585091867
 30
0.0
 10
119.1862543787365
 20
15.76235048125457
 30
0.0
 10
118.8300531097521
 20
16.1180523410763
 30
0.0
 10
118.4721675797733
 20
16.41100547231003
 30
0.0
 10
118.1094256276631
 20
16.63942996675993
 30
0.0
 10
117.7424569204476
 20
16.80115703219527
 30
0.0
 10
117.3733419063892
 20
16.90396846246599
 30
0.0
 10
117.1253535951305
 20
16.91677095915629
 30
0.0
 10
117.0032051282051
 20
16.92307692307692
 30
0.0
  0
SPLINE
  5
98
330
1F
100
AcDbEntity
  8
0
  6
Continuous
 62
     7
370
    25
100
AcDbSpline
210
0.0
220
0.0
230
1.0
 70
     8
 71
     3
 72
    15
 73
    11
 74
     0
 42
0.000000001
 43
0.00000001
 40
0.0
 40
0.0
 40
0.0
 40
0.0
 40
0.1481262583591558
 40
0.2859928874897008
 40
0.4166343935606135
 40
0.5473799458012564
 40
0.6715828376102092
 40
0.7844007386959905
 40
0.8932655763009655
 40
1.0
 40
1.0
 40
1.0
 40
1.0
 10
117.0032051282051
 20
16.92307692307692
 30
0.0
 10
116.8892685419735
 20
16.91908117506471
 30
0.0
 10
116.6692869286655
 20
16.91136643546112
 30
0.0
 10
116.355686818933
 20
16.83468249880653
 30
0.0
 10
116.0772681753857
 20
16.70233728545024
 30
0.0
 10
115.8343027223275
 20
16.52928478524662
 30
0.0
 10
115.6418382368894
 20
16.32079664242309
 30
0.0
 10
115.4881702704748
 20
16.10214618743231
 30
0.0
 10
115.4016422927822
 20
15.86080553413692
 30
0.0
 10
115.3902535084452
 20
15.69504303790231
 30
0.0
 10
115.3846153846154
 20
15.61298076923077
 30
0.0
  0
SPLINE
  5
99
330
1F
100
AcDbEntity
  8
0
  6
Continuous
 62
     7
370
    25
100
AcDbSpline
210
0.0
220
0.0
230
1.0
 70
     8
 71
     3
 72
    11
 73
     7
 74
     0
 42
0.000000001
 43
0.00000001
 40
0.0
 40
0.0
 40
0.0
 40
0.0
 40
0.2418813747501896
 40
0.4871154746783684
 40
0.7378378396463987
 40
1.0
 40
1.0
 40
1.0
 40
1.0
 10
115.3846153846154
 20
15.61298076923077
 30
0.0
 10
115.3881485110143
 20
15.52973512609977
 30
0.0
 10
115.3952637365859
 20
15.36208996941689
 30
0.0
 10
115.4639871300734
 20
15.11638511381712
 30
0.0
 10
115.5675729071036
 20
14.87630286769046
 30
0.0
 10
115.6665533461126
 20
14.73015338037677
 30
0.0
 10
115.7171474358974
 20
14.65544871794872
 30
0.0
  0
SPLINE
  5
9A
330
1F
100
AcDbEntity
  8
0
  6
Continuous
 62
     7
370
    25
100
AcDbSpline
210
0.0
220
0.0
230
1.0
 70
     8
 71
     3
 72
    15
 73
    11
 74
     0
 42
0.000000001
 43
0.00000001
 40
0.0
 40
0.0
 40
0.0
 40
0.0
 40
0.0592341891229435
 40
0.1363492805279899
 40
0.2338052120618157
 40
0.349411223856893
 40
0.4831791503491678
 40
0.6359668555591135
 40
0.8092433563675913
 40
1.0
 40
1.0
 40
1.0
 40
1.0
 10
115.7171474358974
 20
14.65544871794872
 30
0.0
 10
115.7631429365403
 20
14.59738156553593
 30
0.0
 10
115.8690185045703
 20
14.46371864938862
 30
0.0
 10
116.0709015281859
 20
14.2520174257186
 30
0.0
 10
116.3244242070255
 20
13.9926648961609
 30
0.0
 10
116.6393426272861
 20
13.69457943423267
 30
0.0
 10
117.0025836595795
 20
13.34704072093676
 30
0.0
 10
117.4309839946498
 20
12.96371063536182
 30
0.0
 10
117.9122124026426
 20
12.53271789027428
 30
0.0
 10
118.2542584059356
 20
12.23259014972633
 30
0.0
 10
118.4334935897436
 20
12.07532051282051
 30
0.0
  0
SPLINE
  5
9B
330
1F
100
AcDbEntity
  8
0
  6
Continuous
 62
     7
370
    25
100
AcDbSpline
210
0.0
220
0.0
230
1.0
 70
     8
 71
     3
 72
    15
 73
    11
 74
     0
 42
0.000000001
 43
0.00000001
 40
0.0
 40
0.0
 40
0.0
 40
0.0
 40
0.1929527021649359
 40
0.366184141384059
 40
0.5204572982944625
 40
0.6550121351900098
 40
0.7706242255760011
 40
0.8656771846793689
 40
0.9426745273198692
 40
1.0
 40
1.0
 40
1.0
 40
1.0
 10
118.4334935897436
 20
12.07532051282051
 30
0.0
 10
118.601731592418
 20
11.92971900750258
 30
0.0
 10
118.9210123688274
 20
11.65339760017915
 30
0.0
 10
119.3752855102953
 20
11.26120372857531
 30
0.0
 10
119.7745159432254
 20
10.90835646524877
 30
0.0
 10
120.1245195439757
 20
10.60015129259813
 30
0.0
 10
120.419990599367
 20
10.33335443272924
 30
0.0
 10
120.6621712706919
 20
10.10669059974293
 30
0.0
 10
120.8540193842701
 20
9.924572521604347
 30
0.0
 10
120.9630738038897
 20
9.81457309161954
 30
0.0
 10
121.0096153846154
 20
9.767628205128204
 30
0.0
  0
SPLINE
  5
9C
330
1F
100
AcDbEntity
  8
0
  6
Continuous
 62
     7
370
    25
100
AcDbSpline
210
0.0
220
0.0
230
1.0
 70
     8
 71
     3
 72
    15
 73
    11
 74
     0
 42
0.000000001
 43
0.00000001
 40
0.0
 40
0.0
 40
0.0
 40
0.0
 40
0.1508330973407548
 40
0.2899541833158767
 40
0.4171386481520546
 40
0.5352551839062618
 40
0.6487510952936685
 40
0.762405461586121
 40
0.8798267012501026
 40
1.0
 40
1.0
 40
1.0
 40
1.0
 10
121.0096153846154
 20
9.767628205128206
 30
0.0
 10
121.1861844387726
 20
9.576542673004036
 30
0.0
 10
121.5256121691556
 20
9.209209174008308
 30
0.0
 10
121.9667485625027
 20
8.639957774554237
 30
0.0
 10
122.3298180835473
 20
8.084252335996055
 30
0.0
 10
122.6106955499525
 20
7.531636359050546
 30
0.0
 10
122.8228255095501
 20
6.974136695075439
 30
0.0
 10
122.9723799411648
 20
6.398080695049646
 30
0.0
 10
123.0619490853458
 20
5.797448934772735
 30
0.0
 10
123.0718933515638
 20
5.387591081345112
 30
0.0
 10
123.0769230769231
 20
5.180288461538462
 30
0.0
  0
SPLINE
  5
9D
330
1F
100
AcDbEntity
  8
0
  6
Continuous
 62
     7
370
    25
100
AcDbSpline
210
0.0
220
0.0
230
1.0
 70
     8
 71
     3
 72
    23
 73
    19
 74
     0
 42
0.000000001
 43
0.00000001
 40
0.0
 40
0.0
 40
0.0
 40
0.0
 40
0.0652008752881552
 40
0.127926544023031
 40
0.1890469100189666
 40
0.2485436930694594
 40
0.3076071270223457
 40
0.3672476600602126
 40
0.4269630557213205
 40
0.4886171282353924
 40
0.5503918546271241
 40
0.6113307342255594
 40
0.6725560854310838
 40
0.7340241906291923
 40
0.797340620836939
 40
0.8622496273165787
 40
0.9296254660746972
 40
1.0
 40
1.0
 40
1.0
 40
1.0
 10
123.0769230769231
 20
5.180288461538462
 30
0.0
 10
123.0733430471907
 20
4.978297481976389
 30
0.0
 10
123.0663188956109
 20
4.581983662184814
 30
0.0
 10
122.9802865089876
 20
4.002037420162949
 30
0.0
 10
122.8576093752083
 20
3.447003696581482
 30
0.0
 10
122.6679290050587
 20
2.922922042982851
 30
0.0
 10
122.4367476932265
 20
2.421189818759242
 30
0.0
 10
122.1469285297968
 20
1.949622416630469
 30
0.0
 10
121.8065756622636
 20
1.503447381725016
 30
0.0
 10
121.4164790174239
 20
1.090640638383745
 30
0.0
 10
120.9849858063923
 20
0.7160471313503846
 30
0.0
 10
120.522168329176
 20
0.3825751437819686
 30
0.0
 10
120.0235009235272
 20
0.1072515415514886
 30
0.0
 10
119.4932441251743
 20
-0.1194578063178978
 30
0.0
 10
118.93168176856
 20
-0.2940723774058698
 30
0.0
 10
118.33948284373
 20
-0.4231288193889196
 30
0.0
 10
117.7157415420381
 20
-0.5005864615219915
 30
0.0
 10
117.2892182517629
 20
-0.5086837390331725
 30
0.0
 10
117.0713141025641
 20
-0.5128205128205123
 30
0.0
  0
SPLINE
  5
9E
330
1F
100
AcDbEntity
  8
0
  6
Continuous
 62
     7
370
    25
100
AcDbSpline
210
0.0
220
0.0
230
1.0
 70
     8
 71
     3
 72
    23
 73
    19
 74
     0
 42
0.000000001
 43
0.00000001
 40
0.0
 40
0.0
 40
0.0
 40
0.0
 40
0.0635514822357814
 40
0.125868381645385
 40
0.1862402502136734
 40
0.244976650631939
 40
0.3033576876770614
 40
0.3612303170408038
 40
0.4184890490283523
 40
0.4759367117285732
 40
0.5342037438191214
 40
0.5940594289675392
 40
0.6554686942598733
 40
0.7187716848998881
 40
0.7849746072190587
 40
0.8535223163767021
 40
0.925182450771931
 40
1.0
 40
1.0
 40
1.0
 40
1.0
 10
117.0713141025641
 20
-0.5128205128205123
 30
0.0
 10
116.9002612010258
 20
-0.5097859203952119
 30
0.0
 10
116.5614783570239
 20
-0.5037756870522846
 30
0.0
 10
116.0621636629572
 20
-0.4547071344353331
 30
0.0
 10
115.580018881411
 20
-0.3755157112339657
 30
0.0
 10
115.1155871054136
 20
-0.2620107452790902
 30
0.0
 10
114.6667759878019
 20
-0.1181845589353601
 30
0.0
 10
114.2335670965342
 20
0.057493617991837
 30
0.0
 10
113.8189510164206
 20
0.2677467314444165
 30
0.0
 10
113.4197905656349
 20
0.5082511414519468
 30
0.0
 10
113.0380261565482
 20
0.7875084416405949
 30
0.0
 10
112.6688305283664
 20
1.099809307896648
 30
0.0
 10
112.3158708826142
 20
1.449957067252211
 30
0.0
 10
111.9774520256785
 20
1.837123633794315
 30
0.0
 10
111.655739255759
 20
2.262405370243249
 30
0.0
 10
111.3402017594998
 20
2.719879441389748
 30
0.0
 10
111.0448629727173
 20
3.218035944921177
 30
0.0
 10
110.8624190665451
 20
3.567496761895668
 30
0.0
 10
110.7692307692308
 20
3.74599358974359
 30
0.0
  0
SPLINE
  5
A0
330
1F
100
AcDbEntity
  8
0
  6
Continuous
 62
     7
370
    25
100
AcDbSpline
210
0.0
220
0.0
230
1.0
 70
     8
 71
     3
 72
    15
 73
    11
 74
     0
 42
0.000000001
 43
0.00000001
 40
0.0
 40
0.0
 40
0.0
 40
0.0
 40
0.1604579205559364
 40
0.3076115473748589
 40
0.4421388877557714
 40
0.566229194170335
 40
0.6812222080152126
 40
0.78955800524363
 40
0.8950288924051364
 40
1.0
 40
1.0
 40
1.0
 40
1.0
 10
113.9262820512821
 20
5.641025641025641
 30
0.0
 10
114.042846683473
 20
5.438408419342547
 30
0.0
 10
114.2663110456758
 20
5.049973888527325
 30
0.0
 10
114.6449922984604
 20
4.528062865489757
 30
0.0
 10
115.0329319096878
 20
4.081132466345709
 30
0.0
 10
115.4390986955789
 20
3.717082214568438
 30
0.0
 10
115.8585538199958
 20
3.431044290354128
 30
0.0
 10
116.2933233486591
 20
3.226621745744239
 30
0.0
 10
116.7437127422689
 20
3.100084421879831
 30
0.0
 10
117.0504975362669
 20
3.084631292007908
 30
0.0
 10
117.2035256410256
 20
3.076923076923077
 30
0.0
  0
SPLINE
  5
A1
330
1F
100
AcDbEntity
  8
0
  6
Continuous
 62
     7
370
    25
100
AcDbSpline
210
0.0
220
0.0
230
1.0
 70
     8
 71
     3
 72
    15
 73
    11
 74
     0
 42
0.000000001
 43
0.00000001
 40
0.0
 40
0.0
 40
0.0
 40
0.0
 40
0.1419858925296713
 40
0.2754733105502128
 40
0.4043458426631398
 40
0.5354297108606303
 40
0.6614274010622526
 40
0.7778668404627599
 40
0.8882797492818431
 40
1.0
 40
1.0
 40
1.0
 40
1.0
 10
117.2035256410256
 20
3.076923076923077
 30
0.0
 10
117.3591771321265
 20
3.083218023315141
 30
0.0
 10
117.6611636941834
 20
3.095431136121371
 30
0.0
 10
118.0922108678556
 20
3.208239976874101
 30
0.0
 10
118.487411237839
 20
3.385358132553348
 30
0.0
 10
118.8290195188799
 20
3.63808131666868
 30
0.0
 10
119.1182718729651
 20
3.92976228218006
 30
0.0
 10
119.3317567133925
 20
4.254270693174663
 30
0.0
 10
119.4658693300818
 20
4.605380960523611
 30
0.0
 10
119.4800482852188
 20
4.849285247766139
 30
0.0
 10
119.4871794871795
 20
4.971955128205129
 30
0.0
  0
SPLINE
  5
A2
330
1F
100
AcDbEntity
  8
0
  6
Continuous
 62
     7
370
    25
100
AcDbSpline
210
0.0
220
0.0
230
1.0
 70
     8
 71
     3
 72
    19
 73
    15
 74
     0
 42
0.000000001
 43
0.00000001
 40
0.0
 40
0.0
 40
0.0
 40
0.0
 40
0.0763466063531708
 40
0.155090821814665
 40
0.2383515612585566
 40
0.3284041399329893
 40
0.3793838595513616
 40
0.4396176441748226
 40
0.509831415831315
 40
0.5888746449969591
 40
0.6774363544094504
 40
0.7755467196196754
 40
0.8826358717258562
 40
1.0
 40
1.0
 40
1.0
 40
1.0
 10
119.4871794871795
 20
4.971955128205128
 30
0.0
 10
119.480594114069
 20
5.086079489940167
 30
0.0
 10
119.4672165590413
 20
5.317912205184705
 30
0.0
 10
119.3686816113926
 20
5.662610173673459
 30
0.0
 10
119.2146414336778
 20
6.007151380635595
 30
0.0
 10
119.0324010408809
 20
6.289753399971785
 30
0.0
 10
118.8469486216837
 20
6.526368410128182
 30
0.0
 10
118.6696142800421
 20
6.731384612994563
 30
0.0
 10
118.453667962514
 20
6.957891625441487
 30
0.0
 10
118.1996572137149
 20
7.206174376112757
 30
0.0
 10
117.9109381784109
 20
7.478418560889205
 30
0.0
 10
117.5872676482322
 20
7.774597520545543
 30
0.0
 10
117.2249392532043
 20
8.092102272675163
 30
0.0
 10
116.9688448286806
 20
8.30838337294615
 30
0.0
 10
116.8349358974359
 20
8.42147435897436
 30
0.0
  0
SPLINE
  5
A3
330
1F
100
AcDbEntity
  8
0
  6
Continuous
 62
     7
370
    25
100
AcDbSpline
210
0.0
220
0.0
230
1.0
 70
     8
 71
     3
 72
    19
 73
    15
 74
     0
 42
0.000000001
 43
0.00000001
 40
0.0
 40
0.0
 40
0.0
 40
0.0
 40
0.1121245812797455
 40
0.2152010090762412
 40
0.3099024524934773
 40
0.3959590963320911
 40
0.473447494000333
 40
0.5421403275660309
 40
0.6025233330554093
 40
0.6547263328340142
 40
0.7478040553141014
 40
0.8352784168250087
 40
0.9189252427194491
 40
1.0
 40
1.0
 40
1.0
 40
1.0
 10
116.8349358974359
 20
8.421474358974361
 30
0.0
 10
116.5803696894385
 20
8.636861781854977
 30
0.0
 10
116.0917800847998
 20
9.050255439313514
 30
0.0
 10
115.4013409851758
 20
9.660824857555076
 30
0.0
 10
114.7791935353359
 20
10.23145792487327
 30
0.0
 10
114.2307112688086
 20
10.76920891340397
 30
0.0
 10
113.7489056730124
 20
11.26414680856458
 30
0.0
 10
113.3370397447871
 20
11.72029168527328
 30
0.0
 10
112.9996380186375
 20
12.14116207736951
 30
0.0
 10
112.6445954549081
 20
12.63965489281929
 30
0.0
 10
112.3072340332521
 20
13.24710264059303
 30
0.0
 10
112.0156580299075
 20
13.97793270018489
 30
0.0
 10
111.8264958254988
 20
14.70867002827932
 30
0.0
 10
111.8053028314062
 20
15.19924682196129
 30
0.0
 10
111.7948717948718
 20
15.44070512820513
 30
0.0
  0
SPLINE
  5
A4
330
1F
100
AcDbEntity
  8
0
  6
Continuous
 62
     7
370
    25
100
AcDbSpline
210
0.0
220
0.0
230
1.0
 70
     8
 71
     3
 72
    23
 73
    19
 74
     0
 42
0.000000001
 43
0.00000001
 40
0.0
 40
0.0
 40
0.0
 40
0.0
 40
0.0631728801065213
 40
0.1244573597770007
 40
0.1848409152554597
 40
0.2445668214643685
 40
0.3043191726186556
 40
0.3651997864614181
 40
0.4274209827764745
 40
0.4912616890772873
 40
0.5554990019310212
 40
0.6186045181428791
 40
0.6804947639253097
 40
0.7424733052606067
 40
0.8049906647647708
 40
0.8682519711837803
 40
0.9328872172654757
 40
1.0
 40
1.0
 40
1.0
 40
1.0
 10
111.7948717948718
 20
15.44070512820513
 30
0.0
 10
111.7992100490665
 20
15.61193439894533
 30
0.0
 10
111.8077568758411
 20
15.94927445557934
 30
0.0
 10
111.8839958891384
 20
16.44528385694472
 30
0.0
 10
111.9979379990708
 20
16.92389125288984
 30
0.0
 10
112.1634146544574
 20
17.38335046559446
 30
0.0
 10
112.3781833727454
 20
17.82308600389891
 30
0.0
 10
112.6390116387663
 20
18.24525055834096
 30
0.0
 10
112.9499496212145
 20
18.64595862171222
 30
0.0
 10
113.3003557360128
 20
19.0249445528166
 30
0.0
 10
113.6864135606426
 20
19.37129456550075
 30
0.0
 10
114.0989654071279
 20
19.67698315598724
 30
0.0
 10
114.5356761955804
 20
19.93517218446223
 30
0.0
 10
114.9938743505285
 20
20.14935873136185
 30
0.0
 10
115.4763991352848
 20
20.3133049268145
 30
0.0
 10
115.9796958118673
 20
20.42951816190912
 30
0.0
 10
116.5044862673807
 20
20.49863808808627
 30
0.0
 10
116.86143740739
 20
20.50803413996799
 30
0.0
 10
117.0432692307692
 20
20.51282051282051
 30
0.0
  0
SPLINE
  5
A5
330
1F
100
AcDbEntity
  8
0
  6
Continuous
 62
     7
370
    25
100
AcDbSpline
210
0.0
220
0.0
230
1.0
 70
     8
 71
     3
 72
    19
 73
    15
 74
     0
 42
0.000000001
 43
0.00000001
 40
0.0
 40
0.0
 40
0.0
 40
0.0
 40
0.1069102197112
 40
0.2129765276064943
 40
0.319776675957768
 40
0.4285562728491935
 40
0.4858568032784272
 40
0.5465586866406889
 40
0.6114314979175134
 40
0.6798209100724933
 40
0.7531585046908261
 40
0.8307528691562631
 40
0.9131330746557009
 40
1.0
 40
1.0
 40
1.0
 40
1.0
 10
117.0432692307692
 20
20.51282051282051
 30
0.0
 10
117.2789142742675
 20
20.50420011507605
 30
0.0
 10
117.7483442618544
 20
20.48702736598656
 30
0.0
 10
118.442410037713
 20
20.35274207972743
 30
0.0
 10
119.1203444689556
 20
20.14156432209546
 30
0.0
 10
119.6666367388284
 20
19.88680159118774
 30
0.0
 10
120.1013113008372
 20
19.64001281320763
 30
0.0
 10
120.4344487484567
 20
19.41280079375318
 30
0.0
 10
120.7734340329886
 20
19.15251721363585
 30
0.0
 10
121.1210008604728
 20
18.85834185059366
 30
0.0
 10
121.4706909010598
 20
18.5247320544423
 30
0.0
 10
121.8324475149469
 20
18.15962966900183
 30
0.0
 10
122.2013413260882
 20
17.75987935581975
 30
0.0
 10
122.4410638139089
 20
17.4742995856795
 30
0.0
 10
122.5641025641026
 20
17.32772435897436
 30
0.0
  0
SPLINE
  5
CD
330
1F
100
AcDbEntity
  8
0
  6
Continuous
 62
     7
370
    25
100
AcDbSpline
210
0.0
220
0.0
230
1.0
 70
     8
 71
     3
 72
    23
 73
    19
 74
     0
 42
0.000000001
 43
0.00000001
 40
0.0
 40
0.0
 40
0.0
 40
0.0
 40
0.0722187479928819
 40
0.1394897657276684
 40
0.2003699977303417
 40
0.2564327255100084
 40
0.3078035215508905
 40
0.3536585165318464
 40
0.3944199056460607
 40
0.4301557059443434
 40
0.4966662725087366
 40
0.5620176176150519
 40
0.6287545482746028
 40
0.6974096406803555
 40
0.7680791946526321
 40
0.8413381260898065
 40
0.9183362465478034
 40
1.0
 40
1.0
 40
1.0
 40
1.0
 10
20.25641025641026
 20
6.987179487179488
 30
0.0
 10
20.25660544895162
 20
6.852268208250393
 30
0.0
 10
20.25698246132893
 20
6.591688466634066
 30
0.0
 10
20.27585589838561
 20
6.217841852398695
 30
0.0
 10
20.2931263948434
 20
5.874198538686508
 30
0.0
 10
20.32428727242362
 20
5.56113474149593
 30
0.0
 10
20.37032256913872
 20
5.278516543318391
 30
0.0
 10
20.41489975780034
 20
5.024528505269472
 30
0.0
 10
20.47523057461645
 20
4.80371799601004
 30
0.0
 10
20.56589814678747
 20
4.552377826866629
 30
0.0
 10
20.70558711203777
 20
4.269983418514115
 30
0.0
 10
20.93383113068903
 20
3.975665487632985
 30
0.0
 10
21.19720520257168
 20
3.707057657182598
 30
0.0
 10
21.51287419718977
 20
3.483478676400261
 30
0.0
 10
21.86765823052651
 20
3.302623432820336
 30
0.0
 10
22.25960792188901
 20
3.168629712113687
 30
0.0
 10
22.68817076172783
 20
3.094146994555145
 30
0.0
 10
22.98449845670329
 20
3.082775843348462
 30
0.0
 10
23.13701923076923
 20
3.076923076923077
 30
0.0
  0
SPLINE
  5
CE
330
1F
100
AcDbEntity
  8
0
  6
Continuous
 62
     7
370
    25
100
AcDbSpline
210
0.0
220
0.0
230
1.0
 70
     8
 71
     3
 72
    23
 73
    19
 74
     0
 42
0.000000001
 43
0.00000001
 40
0.0
 40
0.0
 40
0.0
 40
0.0
 40
0.0788326040104727
 40
0.1537102312098449
 40
0.2246777586657772
 40
0.2948087751910967
 40
0.3627147868294587
 40
0.4271032430309812
 40
0.488649765551411
 40
0.5509002465387021
 40
0.5850458333883308
 40
0.6252721895341629
 40
0.6714658644313024
 40
0.724549992884967
 40
0.7832647317228374
 40
0.8490731308598449
 40
0.9212962952783854
 40
0.9999999999999999
 40
0.9999999999999999
 40
0.9999999999999999
 40
0.9999999999999999
 10
23.13701923076923
 20
3.076923076923077
 30
0.0
 10
23.29905373119718
 20
3.081651360842366
 30
0.0
 10
23.61499357407541
 20
3.090870713971476
 30
0.0
 10
24.06942274132724
 20
3.18136864523226
 30
0.0
 10
24.4904539419501
 20
3.325472345243247
 30
0.0
 10
24.86917250954614
 20
3.531145050466384
 30
0.0
 10
25.20520155816816
 20
3.777679833106305
 30
0.0
 10
25.48964310643577
 20
4.058806741696948
 30
0.0
 10
25.71412333150284
 20
4.375086484439204
 30
0.0
 10
25.86043119055959
 20
4.666878631920567
 30
0.0
 10
25.94257584834206
 20
4.935447893740911
 30
0.0
 10
26.00414736147044
 20
5.17540433792793
 30
0.0
 10
26.04928609205445
 20
5.458529189841943
 30
0.0
 10
26.09023743201709
 20
5.780400844186203
 30
0.0
 10
26.11484603260919
 20
6.144353271848058
 30
0.0
 10
26.14153004820979
 20
6.54745951993865
 30
0.0
 10
26.15130998743554
 20
6.992477749482521
 30
0.0
 10
26.15297690682496
 20
7.302352294864199
 30
0.0
 10
26.15384615384615
 20
7.463942307692307
 30
0.0
  0
SPLINE
  5
D1
330
1F
100
AcDbEntity
  8
0
  6
Continuous
 62
     7
370
    25
100
AcDbSpline
210
0.0
220
0.0
230
1.0
 70
     8
 71
     3
 72
    27
 73
    23
 74
     0
 42
0.000000001
 43
0.00000001
 40
0.0
 40
0.0
 40
0.0
 40
0.0
 40
0.0585404168084434
 40
0.1125675123403487
 40
0.1617798781047808
 40
0.2064871555823914
 40
0.2464570299480987
 40
0.281999707406142
 40
0.3132129382361464
 40
0.3398064735188106
 40
0.3894126122316832
 40
0.4404734799435063
 40
0.4939547398756064
 40
0.5499778768088323
 40
0.6064880836267159
 40
0.6613185000989842
 40
0.7146910989596497
 40
0.7679184713297977
 40
0.8219387900584595
 40
0.8781073740704575
 40
0.9372026550360457
 40
1.0
 40
1.0
 40
1.0
 40
1.0
 10
29.74358974358974
 20
8.068910256410255
 30
0.0
 10
29.74309124244473
 20
7.827186948544291
 30
0.0
 10
29.74213267335943
 20
7.362376601699831
 30
0.0
 10
29.72741194209633
 20
6.694411423489877
 30
0.0
 10
29.69607416809772
 20
6.084332379770783
 30
0.0
 10
29.66975405264814
 20
5.531961206764685
 30
0.0
 10
29.61881561577035
 20
5.038042039772383
 30
0.0
 10
29.56574971414638
 20
4.600465703060766
 30
0.0
 10
29.49811265707189
 20
4.220782868023016
 30
0.0
 10
29.39747278315494
 20
3.788560101759684
 30
0.0
 10
29.22379815483007
 20
3.290871415439165
 30
0.0
 10
28.94381188496953
 20
2.717804468014222
 30
0.0
 10
28.58838743711582
 20
2.156737214048566
 30
0.0
 10
28.16829350233352
 20
1.613841780305018
 30
0.0
 10
27.69396902290434
 20
1.109509418257868
 30
0.0
 10
27.17593078768664
 20
0.6667708842948584
 30
0.0
 10
26.62240913641391
 20
0.29226182660568
 30
0.0
 10
26.02762016465697
 20
-0.004860557000802
 30
0.0
 10
25.39207006820016
 20
-0.2365936170616017
 30
0.0
 10
24.70947055324561
 20
-0.3923065617099843
 30
0.0
 10
23.98028709875361
 20
-0.4975081816332369
 30
0.0
 10
23.47662630436122
 20
-0.5076140918160703
 30
0.0
 10
23.21714743589744
 20
-0.5128205128205123
 30
0.0
  0
SPLINE
  5
D2
330
1F
100
AcDbEntity
  8
0
  6
Continuous
 62
     7
370
    25
100
AcDbSpline
210
0.0
220
0.0
230
1.0
 70
     8
 71
     3
 72
    31
 73
    27
 74
     0
 42
0.000000001
 43
0.00000001
 40
0.0
 40
0.0
 40
0.0
 40
0.0
 40
0.0417149324333618
 40
0.0823027059399526
 40
0.121571814425737
 40
0.1600671244574461
 40
0.197993762905224
 40
0.2355661717952779
 40
0.2730048805336445
 40
0.3100903331095234
 40
0.346846143253429
 40
0.3824835718335568
 40
0.4172710082891835
 40
0.4513316191888086
 40
0.4848527413222466
 40
0.5180308512419193
 40
0.5510685457911262
 40
0.5841710000647795
 40
0.6194667444415163
 40
0.6591579072517059
 40
0.7034715469577034
 40
0.752840113921964
 40
0.806844312420616
 40
0.8661419381570227
 40
0.9305017472849206
 40
1.0
 40
1.0
 40
1.0
 40
1.0
 10
23.21714743589744
 20
-0.5128205128205123
 30
0.0
 10
23.04474451364759
 20
-0.5099166132900724
 30
0.0
 10
22.70459708476745
 20
-0.5041872790878705
 30
0.0
 10
22.20435061839239
 20
-0.4536695170749838
 30
0.0
 10
21.72076414128243
 20
-0.3792253313272299
 30
0.0
 10
21.2547463088511
 20
-0.2706189304495041
 30
0.0
 10
20.80467966032858
 20
-0.1303197455477072
 30
0.0
 10
20.37068376799957
 20
0.0423787803519784
 30
0.0
 10
19.9543714651937
 20
0.2465133567128869
 30
0.0
 10
19.55807237743197
 20
0.4802063871557974
 30
0.0
 10
19.1822741844553
 20
0.7329051705325801
 30
0.0
 10
18.83881403435453
 20
1.013032409226585
 30
0.0
 10
18.51587265716344
 20
1.299871636238457
 30
0.0
 10
18.22277969461214
 20
1.605494263756002
 30
0.0
 10
17.95733375747632
 20
1.926691775503992
 30
0.0
 10
17.72008153220471
 20
2.264192110165391
 30
0.0
 10
17.51137549628884
 20
2.617965290017928
 30
0.0
 10
17.32596576426927
 20
2.994388055084167
 30
0.0
 10
17.16727312959655
 20
3.412592616449481
 30
0.0
 10
17.03348927704743
 20
3.887454682024292
 30
0.0
 10
16.91661255515624
 20
4.426417240784981
 30
0.0
 10
16.82975667176594
 20
5.030694546624493
 30
0.0
 10
16.75101261775651
 20
5.698294968872274
 30
0.0
 10
16.70117197319298
 20
6.430957708609216
 30
0.0
 10
16.67509808849661
 20
7.228703786433986
 30
0.0
 10
16.66954815616631
 20
7.781764604158651
 30
0.0
 10
16.66666666666666
 20
8.068910256410255
 30
0.0
  0
SPLINE
  5
D5
330
1F
100
AcDbEntity
  8
0
  6
Continuous
 62
     7
370
    25
100
AcDbSpline
210
0.0
220
0.0
230
1.0
 70
     8
 71
     3
 72
    15
 73
    11
 74
     0
 42
0.000000001
 43
0.00000001
 40
0.0
 40
0.0
 40
0.0
 40
0.0
 40
0.150833097340755
 40
0.2899541833158772
 40
0.417138648152054
 40
0.5352551839062617
 40
0.648751095293668
 40
0.7624054615861211
 40
0.8798267012501025
 40
1.0
 40
1.0
 40
1.0
 40
1.0
 10
11.00961538461538
 20
9.767628205128204
 30
0.0
 10
11.18618443877258
 20
9.576542673004036
 30
0.0
 10
11.52561216915556
 20
9.209209174008302
 30
0.0
 10
11.96674856250271
 20
8.639957774554249
 30
0.0
 10
12.32981808354723
 20
8.084252335996046
 30
0.0
 10
12.61069554995249
 20
7.53163635905055
 30
0.0
 10
12.82282550955006
 20
6.974136695075433
 30
0.0
 10
12.97237994116486
 20
6.398080695049649
 30
0.0
 10
13.06194908534575
 20
5.797448934772733
 30
0.0
 10
13.07189335156385
 20
5.387591081345115
 30
0.0
 10
13.07692307692308
 20
5.180288461538463
 30
0.0
  0
SPLINE
  5
D6
330
1F
100
AcDbEntity
  8
0
  6
Continuous
 62
     7
370
    25
100
AcDbSpline
210
0.0
220
0.0
230
1.0
 70
     8
 71
     3
 72
    15
 73
    11
 74
     0
 42
0.000000001
 43
0.00000001
 40
0.0
 40
0.0
 40
0.0
 40
0.0
 40
0.1624203072014375
 40
0.3118243397330492
 40
0.4484327667925793
 40
0.5733811968860479
 40
0.6890771468735454
 40
0.7975729005012506
 40
0.9002930430775781
 40
1.0
 40
1.0
 40
1.0
 40
1.0
 10
9.879807692307688
 20
14.87179487179487
 30
0.0
 10
9.764824010002226
 20
15.03399130946546
 30
0.0
 10
9.544071374862142
 20
15.34538585091867
 30
0.0
 10
9.186254378736477
 20
15.76235048125456
 30
0.0
 10
8.83005310975217
 20
16.11805234107631
 30
0.0
 10
8.472167579773245
 20
16.41100547231002
 30
0.0
 10
8.10942562766305
 20
16.63942996675993
 30
0.0
 10
7.742456920447671
 20
16.80115703219527
 30
0.0
 10
7.373341906389191
 20
16.90396846246599
 30
0.0
 10
7.125353595130543
 20
16.91677095915629
 30
0.0
 10
7.003205128205126
 20
16.92307692307693
 30
0.0
  0
SPLINE
  5
D7
330
1F
100
AcDbEntity
  8
0
  6
Continuous
 62
     7
370
    25
100
AcDbSpline
210
0.0
220
0.0
230
1.0
 70
     8
 71
     3
 72
    15
 73
    11
 74
     0
 42
0.000000001
 43
0.00000001
 40
0.0
 40
0.0
 40
0.0
 40
0.0
 40
0.148126258359156
 40
0.285992887489699
 40
0.4166343935606144
 40
0.5473799458012562
 40
0.6715828376102099
 40
0.7844007386959907
 40
0.8932655763009653
 40
1.0
 40
1.0
 40
1.0
 40
1.0
 10
7.003205128205126
 20
16.92307692307693
 30
0.0
 10
6.889268541973456
 20
16.91908117506471
 30
0.0
 10
6.669286928665502
 20
16.91136643546113
 30
0.0
 10
6.355686818932949
 20
16.83468249880652
 30
0.0
 10
6.077268175385758
 20
16.70233728545025
 30
0.0
 10
5.834302722327461
 20
16.52928478524661
 30
0.0
 10
5.641838236889448
 20
16.32079664242309
 30
0.0
 10
5.488170270474796
 20
16.10214618743231
 30
0.0
 10
5.401642292782157
 20
15.86080553413692
 30
0.0
 10
5.390253508445173
 20
15.69504303790231
 30
0.0
 10
5.38461538461539
 20
15.61298076923077
 30
0.0
  0
SPLINE
  5
D8
330
1F
100
AcDbEntity
  8
0
  6
Continuous
 62
     7
370
    25
100
AcDbSpline
210
0.0
220
0.0
230
1.0
 70
     8
 71
     3
 72
    15
 73
    11
 74
     0
 42
0.000000001
 43
0.00000001
 40
0.0
 40
0.0
 40
0.0
 40
0.0
 40
0.1419858925296712
 40
0.2754733105502126
 40
0.4043458426631393
 40
0.5354297108606286
 40
0.6614274010622534
 40
0.77786684046276
 40
0.8882797492818431
 40
1.0
 40
1.0
 40
1.0
 40
1.0
 10
7.203525641025638
 20
3.076923076923077
 30
0.0
 10
7.359177132126471
 20
3.08321802331514
 30
0.0
 10
7.661163694183432
 20
3.095431136121371
 30
0.0
 10
8.09221086785558
 20
3.208239976874102
 30
0.0
 10
8.487411237838986
 20
3.385358132553347
 30
0.0
 10
8.82901951887989
 20
3.638081316668686
 30
0.0
 10
9.11827187296503
 20
3.929762282180053
 30
0.0
 10
9.33175671339255
 20
4.254270693174666
 30
0.0
 10
9.46586933008177
 20
4.605380960523609
 30
0.0
 10
9.480048285218784
 20
4.849285247766137
 30
0.0
 10
9.487179487179489
 20
4.971955128205129
 30
0.0
  0
SPLINE
  5
D9
330
1F
100
AcDbEntity
  8
0
  6
Continuous
 62
     7
370
    25
100
AcDbSpline
210
0.0
220
0.0
230
1.0
 70
     8
 71
     3
 72
    15
 73
    11
 74
     0
 42
0.000000001
 43
0.00000001
 40
0.0
 40
0.0
 40
0.0
 40
0.0
 40
0.0592341891229437
 40
0.1363492805279907
 40
0.2338052120618145
 40
0.3494112238568931
 40
0.4831791503491675
 40
0.6359668555591127
 40
0.8092433563675906
 40
1.0
 40
1.0
 40
1.0
 40
1.0
 10
5.717147435897435
 20
14.65544871794872
 30
0.0
 10
5.76314293654033
 20
14.59738156553592
 30
0.0
 10
5.86901850457025
 20
14.46371864938862
 30
0.0
 10
6.070901528185929
 20
14.25201742571861
 30
0.0
 10
6.324424207025448
 20
13.99266489616089
 30
0.0
 10
6.639342627286118
 20
13.69457943423267
 30
0.0
 10
7.002583659579509
 20
13.34704072093676
 30
0.0
 10
7.430983994649823
 20
12.96371063536183
 30
0.0
 10
7.912212402642588
 20
12.53271789027427
 30
0.0
 10
8.25425840593562
 20
12.23259014972633
 30
0.0
 10
8.433493589743588
 20
12.07532051282051
 30
0.0
  0
SPLINE
  5
DB
330
1F
100
AcDbEntity
  8
0
  6
Continuous
 62
     7
370
    25
100
AcDbSpline
210
0.0
220
0.0
230
1.0
 70
     8
 71
     3
 72
    23
 73
    19
 74
     0
 42
0.000000001
 43
0.00000001
 40
0.0
 40
0.0
 40
0.0
 40
0.0
 40
0.0631728801065212
 40
0.1244573597770007
 40
0.1848409152554599
 40
0.2445668214643686
 40
0.3043191726186553
 40
0.3651997864614178
 40
0.4274209827764749
 40
0.4912616890772871
 40
0.5554990019310219
 40
0.618604518142879
 40
0.6804947639253088
 40
0.7424733052606064
 40
0.8049906647647707
 40
0.8682519711837804
 40
0.9328872172654761
 40
1.0
 40
1.0
 40
1.0
 40
1.0
 10
1.794871794871797
 20
15.44070512820513
 30
0.0
 10
1.799210049066538
 20
15.61193439894533
 30
0.0
 10
1.807756875841074
 20
15.94927445557934
 30
0.0
 10
1.883995889138387
 20
16.44528385694471
 30
0.0
 10
1.997937999070817
 20
16.92389125288983
 30
0.0
 10
2.163414654457449
 20
17.38335046559446
 30
0.0
 10
2.378183372745479
 20
17.82308600389891
 30
0.0
 10
2.639011638766273
 20
18.24525055834097
 30
0.0
 10
2.949949621214545
 20
18.64595862171221
 30
0.0
 10
3.300355736012783
 20
19.02494455281661
 30
0.0
 10
3.686413560642601
 20
19.37129456550074
 30
0.0
 10
4.098965407127883
 20
19.67698315598724
 30
0.0
 10
4.535676195580388
 20
19.93517218446224
 30
0.0
 10
4.993874350528504
 20
20.14935873136185
 30
0.0
 10
5.476399135284832
 20
20.3133049268145
 30
0.0
 10
5.979695811867288
 20
20.42951816190911
 30
0.0
 10
6.504486267380746
 20
20.49863808808628
 30
0.0
 10
6.861437407389953
 20
20.50803413996799
 30
0.0
 10
7.043269230769228
 20
20.51282051282051
 30
0.0
  0
SPLINE
  5
DC
330
1F
100
AcDbEntity
  8
0
  6
Continuous
 62
     7
370
    25
100
AcDbSpline
210
0.0
220
0.0
230
1.0
 70
     8
 71
     3
 72
    19
 73
    15
 74
     0
 42
0.000000001
 43
0.00000001
 40
0.0
 40
0.0
 40
0.0
 40
0.0
 40
0.1069102197112
 40
0.212976527606494
 40
0.3197766759577688
 40
0.4285562728491935
 40
0.4858568032784265
 40
0.546558686640689
 40
0.6114314979175137
 40
0.6798209100724935
 40
0.7531585046908256
 40
0.8307528691562628
 40
0.9131330746557016
 40
1.0
 40
1.0
 40
1.0
 40
1.0
 10
7.043269230769228
 20
20.51282051282051
 30
0.0
 10
7.278914274267481
 20
20.50420011507604
 30
0.0
 10
7.748344261854334
 20
20.48702736598655
 30
0.0
 10
8.44241003771308
 20
20.35274207972743
 30
0.0
 10
9.12034446895557
 20
20.14156432209547
 30
0.0
 10
9.666636738828407
 20
19.88680159118774
 30
0.0
 10
10.10131130083715
 20
19.64001281320762
 30
0.0
 10
10.43444874845668
 20
19.41280079375319
 30
0.0
 10
10.77343403298853
 20
19.15251721363585
 30
0.0
 10
11.12100086047275
 20
18.85834185059366
 30
0.0
 10
11.4706909010598
 20
18.5247320544423
 30
0.0
 10
11.83244751494693
 20
18.15962966900182
 30
0.0
 10
12.20134132608822
 20
17.75987935581974
 30
0.0
 10
12.44106381390893
 20
17.4742995856795
 30
0.0
 10
12.56410256410256
 20
17.32772435897436
 30
0.0
  0
SPLINE
  5
DD
330
1F
100
AcDbEntity
  8
0
  6
Continuous
 62
     7
370
    25
100
AcDbSpline
210
0.0
220
0.0
230
1.0
 70
     8
 71
     3
 72
    23
 73
    19
 74
     0
 42
0.000000001
 43
0.00000001
 40
0.0
 40
0.0
 40
0.0
 40
0.0
 40
0.0635514822357807
 40
0.1258683816453845
 40
0.1862402502136731
 40
0.2449766506319388
 40
0.3033576876770608
 40
0.361230317040804
 40
0.4184890490283518
 40
0.4759367117285732
 40
0.5342037438191215
 40
0.5940594289675389
 40
0.6554686942598736
 40
0.7187716848998875
 40
0.7849746072190581
 40
0.8535223163767018
 40
0.925182450771931
 40
1.0
 40
1.0
 40
1.0
 40
1.0
 10
7.071314102564105
 20
-0.5128205128205123
 30
0.0
 10
6.900261201025798
 20
-0.5097859203952119
 30
0.0
 10
6.561478357023906
 20
-0.5037756870522846
 30
0.0
 10
6.06216366295724
 20
-0.4547071344353331
 30
0.0
 10
5.58001888141102
 20
-0.375515711233964
 30
0.0
 10
5.115587105413641
 20
-0.262010745279092
 30
0.0
 10
4.666775987801838
 20
-0.1181845589353584
 30
0.0
 10
4.233567096534163
 20
0.0574936179918335
 30
0.0
 10
3.81895101642063
 20
0.2677467314444199
 30
0.0
 10
3.419790565634961
 20
0.5082511414519452
 30
0.0
 10
3.038026156548149
 20
0.7875084416405932
 30
0.0
 10
2.668830528366445
 20
1.099809307896651
 30
0.0
 10
2.315870882614188
 20
1.449957067252206
 30
0.0
 10
1.977452025678492
 20
1.83712363379432
 30
0.0
 10
1.655739255758987
 20
2.262405370243248
 30
0.0
 10
1.340201759499795
 20
2.719879441389748
 30
0.0
 10
1.044862972717303
 20
3.218035944921175
 30
0.0
 10
0.862419066545092
 20
3.567496761895668
 30
0.0
 10
0.769230769230772
 20
3.74599358974359
 30
0.0
  0
SPLINE
  5
DE
330
1F
100
AcDbEntity
  8
0
  6
Continuous
 62
     7
370
    25
100
AcDbSpline
210
0.0
220
0.0
230
1.0
 70
     8
 71
     3
 72
    23
 73
    19
 74
     0
 42
0.000000001
 43
0.00000001
 40
0.0
 40
0.0
 40
0.0
 40
0.0
 40
0.0652008752881552
 40
0.127926544023031
 40
0.1890469100189664
 40
0.2485436930694591
 40
0.3076071270223457
 40
0.3672476600602124
 40
0.4269630557213204
 40
0.4886171282353918
 40
0.5503918546271243
 40
0.6113307342255594
 40
0.6725560854310829
 40
0.7340241906291916
 40
0.7973406208369384
 40
0.8622496273165777
 40
0.9296254660746963
 40
1.0
 40
1.0
 40
1.0
 40
1.0
 10
13.07692307692308
 20
5.180288461538462
 30
0.0
 10
13.07334304719071
 20
4.978297481976387
 30
0.0
 10
13.0663188956109
 20
4.581983662184814
 30
0.0
 10
12.98028650898764
 20
4.00203742016295
 30
0.0
 10
12.85760937520824
 20
3.447003696581483
 30
0.0
 10
12.6679290050587
 20
2.922922042982847
 30
0.0
 10
12.43674769322646
 20
2.421189818759246
 30
0.0
 10
12.14692852979682
 20
1.949622416630466
 30
0.0
 10
11.80657566226358
 20
1.503447381725019
 30
0.0
 10
11.41647901742387
 20
1.09064063838374
 30
0.0
 10
10.9849858063923
 20
0.7160471313503881
 30
0.0
 10
10.52216832917595
 20
0.3825751437819703
 30
0.0
 10
10.02350092352716
 20
0.1072515415514869
 30
0.0
 10
9.493244125174312
 20
-0.1194578063178978
 30
0.0
 10
8.931681768559976
 20
-0.2940723774058698
 30
0.0
 10
8.339482843730025
 20
-0.4231288193889196
 30
0.0
 10
7.715741542038107
 20
-0.5005864615219915
 30
0.0
 10
7.28921825176293
 20
-0.5086837390331725
 30
0.0
 10
7.071314102564105
 20
-0.5128205128205123
 30
0.0
  0
SPLINE
  5
DF
330
1F
100
AcDbEntity
  8
0
  6
Continuous
 62
     7
370
    25
100
AcDbSpline
210
0.0
220
0.0
230
1.0
 70
     8
 71
     3
 72
    19
 73
    15
 74
     0
 42
0.000000001
 43
0.00000001
 40
0.0
 40
0.0
 40
0.0
 40
0.0
 40
0.0763466063531705
 40
0.155090821814665
 40
0.2383515612585571
 40
0.3284041399329884
 40
0.3793838595513606
 40
0.4396176441748221
 40
0.5098314158313151
 40
0.588874644996958
 40
0.6774363544094505
 40
0.7755467196196753
 40
0.8826358717258562
 40
1.0
 40
1.0
 40
1.0
 40
1.0
 10
9.487179487179489
 20
4.971955128205128
 30
0.0
 10
9.480594114068971
 20
5.086079489940168
 30
0.0
 10
9.467216559041272
 20
5.317912205184705
 30
0.0
 10
9.368681611392649
 20
5.66261017367346
 30
0.0
 10
9.214641433677798
 20
6.007151380635587
 30
0.0
 10
9.032401040880863
 20
6.289753399971787
 30
0.0
 10
8.84694862168374
 20
6.526368410128184
 30
0.0
 10
8.669614280042135
 20
6.731384612994565
 30
0.0
 10
8.453667962513956
 20
6.95789162544148
 30
0.0
 10
8.199657213714865
 20
7.206174376112762
 30
0.0
 10
7.910938178410889
 20
7.478418560889201
 30
0.0
 10
7.587267648232171
 20
7.774597520545544
 30
0.0
 10
7.22493925320429
 20
8.092102272675163
 30
0.0
 10
6.968844828680584
 20
8.30838337294615
 30
0.0
 10
6.834935897435904
 20
8.42147435897436
 30
0.0
  0
SPLINE
  5
E0
330
1F
100
AcDbEntity
  8
0
  6
Continuous
 62
     7
370
    25
100
AcDbSpline
210
0.0
220
0.0
230
1.0
 70
     8
 71
     3
 72
    19
 73
    15
 74
     0
 42
0.000000001
 43
0.00000001
 40
0.0
 40
0.0
 40
0.0
 40
0.0
 40
0.1121245812797445
 40
0.2152010090762413
 40
0.3099024524934763
 40
0.395959096332091
 40
0.473447494000333
 40
0.5421403275660307
 40
0.6025233330554094
 40
0.6547263328340139
 40
0.7478040553141011
 40
0.8352784168250081
 40
0.9189252427194489
 40
1.0
 40
1.0
 40
1.0
 40
1.0
 10
6.834935897435904
 20
8.42147435897436
 30
0.0
 10
6.580369689438495
 20
8.636861781854979
 30
0.0
 10
6.091780084799783
 20
9.050255439313519
 30
0.0
 10
5.401340985175862
 20
9.660824857555069
 30
0.0
 10
4.779193535335943
 20
10.23145792487327
 30
0.0
 10
4.230711268808654
 20
10.76920891340397
 30
0.0
 10
3.748905673012365
 20
11.26414680856458
 30
0.0
 10
3.337039744787065
 20
11.72029168527328
 30
0.0
 10
2.999638018637507
 20
12.1411620773695
 30
0.0
 10
2.644595454908069
 20
12.63965489281929
 30
0.0
 10
2.307234033252101
 20
13.24710264059302
 30
0.0
 10
2.015658029907525
 20
13.9779327001849
 30
0.0
 10
1.826495825498792
 20
14.70867002827932
 30
0.0
 10
1.805302831406203
 20
15.19924682196129
 30
0.0
 10
1.794871794871797
 20
15.44070512820513
 30
0.0
  0
SPLINE
  5
E2
330
1F
100
AcDbEntity
  8
0
  6
Continuous
 62
     7
370
    25
100
AcDbSpline
210
0.0
220
0.0
230
1.0
 70
     8
 71
     3
 72
    15
 73
    11
 74
     0
 42
0.000000001
 43
0.00000001
 40
0.0
 40
0.0
 40
0.0
 40
0.0
 40
0.1604579205559365
 40
0.3076115473748593
 40
0.4421388877557712
 40
0.5662291941703347
 40
0.6812222080152129
 40
0.7895580052436293
 40
0.8950288924051356
 40
1.0
 40
1.0
 40
1.0
 40
1.0
 10
3.926282051282051
 20
5.641025641025641
 30
0.0
 10
4.042846683472975
 20
5.438408419342546
 30
0.0
 10
4.266311045675847
 20
5.049973888527324
 30
0.0
 10
4.644992298460396
 20
4.528062865489759
 30
0.0
 10
5.032931909687843
 20
4.081132466345707
 30
0.0
 10
5.439098695578876
 20
3.717082214568436
 30
0.0
 10
5.858553819995851
 20
3.431044290354132
 30
0.0
 10
6.293323348659118
 20
3.226621745744239
 30
0.0
 10
6.743712742268898
 20
3.100084421879829
 30
0.0
 10
7.050497536266853
 20
3.084631292007908
 30
0.0
 10
7.203525641025638
 20
3.076923076923078
 30
0.0
  0
SPLINE
  5
E3
330
1F
100
AcDbEntity
  8
0
  6
Continuous
 62
     7
370
    25
100
AcDbSpline
210
0.0
220
0.0
230
1.0
 70
     8
 71
     3
 72
    11
 73
     7
 74
     0
 42
0.000000001
 43
0.00000001
 40
0.0
 40
0.0
 40
0.0
 40
0.0
 40
0.2418813747501894
 40
0.4871154746783708
 40
0.7378378396464002
 40
1.0
 40
1.0
 40
1.0
 40
1.0
 10
5.38461538461539
 20
15.61298076923077
 30
0.0
 10
5.388148511014309
 20
15.52973512609977
 30
0.0
 10
5.395263736585901
 20
15.36208996941689
 30
0.0
 10
5.463987130073414
 20
15.11638511381712
 30
0.0
 10
5.567572907103593
 20
14.87630286769045
 30
0.0
 10
5.66655334611263
 20
14.73015338037677
 30
0.0
 10
5.717147435897435
 20
14.65544871794872
 30
0.0
  0
SPLINE
  5
E4
330
1F
100
AcDbEntity
  8
0
  6
Continuous
 62
     7
370
    25
100
AcDbSpline
210
0.0
220
0.0
230
1.0
 70
     8
 71
     3
 72
    15
 73
    11
 74
     0
 42
0.000000001
 43
0.00000001
 40
0.0
 40
0.0
 40
0.0
 40
0.0
 40
0.1929527021649358
 40
0.3661841413840573
 40
0.5204572982944611
 40
0.6550121351900101
 40
0.7706242255759993
 40
0.8656771846793675
 40
0.9426745273198688
 40
1.0
 40
1.0
 40
1.0
 40
1.0
 10
8.433493589743588
 20
12.07532051282051
 30
0.0
 10
8.601731592418032
 20
11.92971900750258
 30
0.0
 10
8.921012368827434
 20
11.65339760017915
 30
0.0
 10
9.375285510295345
 20
11.26120372857531
 30
0.0
 10
9.774515943225397
 20
10.90835646524877
 30
0.0
 10
10.12451954397574
 20
10.60015129259814
 30
0.0
 10
10.41999059936691
 20
10.33335443272924
 30
0.0
 10
10.66217127069194
 20
10.10669059974293
 30
0.0
 10
10.85401938427011
 20
9.924572521604343
 30
0.0
 10
10.96307380388968
 20
9.814573091619542
 30
0.0
 10
11.00961538461538
 20
9.767628205128204
 30
0.0
  0
LINE
  5
E5
330
1F
100
AcDbEntity
  8
0
  6
Continuous
 62
     7
370
    25
100
AcDbLine
 10
157.3758012821
 20
16.4102564103
 30
0.0
 11
156.1538461538
 21
16.4102564103
 31
0.0
  0
LINE
  5
E6
330
1F
100
AcDbEntity
  8
0
  6
Continuous
 62
     7
370
    25
100
AcDbLine
 10
156.1538461538
 20
16.4102564103
 30
0.0
 11
156.1538461538
 21
12.3076923077
 31
0.0
  0
LINE
  5
E7
330
1F
100
AcDbEntity
  8
0
  6
Continuous
 62
     7
370
    25
100
AcDbLine
 10
156.1538461538
 20
12.3076923077
 30
0.0
 11
157.5520833333
 21
12.3076923077
 31
0.0
  0
LINE
  5
E8
330
1F
100
AcDbEntity
  8
0
  6
Continuous
 62
     7
370
    25
100
AcDbLine
 10
152.5641025641
 20
20.0
 30
0.0
 11
156.7467948718
 21
20.0
 31
0.0
  0
LINE
  5
E9
330
1F
100
AcDbEntity
  8
0
  6
Continuous
 62
     7
370
    25
100
AcDbLine
 10
161.1538461538
 20
9.1266025641
 30
0.0
 11
165.7692307692
 21
0.0
 31
0.0
  0
LINE
  5
EA
330
1F
100
AcDbEntity
  8
0
  6
Continuous
 62
     7
370
    25
100
AcDbLine
 10
165.7692307692
 20
0.0
 30
0.0
 11
161.7788461538
 21
0.0
 31
0.0
  0
LINE
  5
EB
330
1F
100
AcDbEntity
  8
0
  6
Continuous
 62
     7
370
    25
100
AcDbLine
 10
161.7788461538
 20
0.0
 30
0.0
 11
157.3717948718
 21
8.7179487179
 31
0.0
  0
LINE
  5
EC
330
1F
100
AcDbEntity
  8
0
  6
Continuous
 62
     7
370
    25
100
AcDbLine
 10
157.3717948718
 20
8.7179487179
 30
0.0
 11
156.1538461538
 21
8.7179487179
 31
0.0
  0
LINE
  5
ED
330
1F
100
AcDbEntity
  8
0
  6
Continuous
 62
     7
370
    25
100
AcDbLine
 10
156.1538461538
 20
8.7179487179
 30
0.0
 11
156.1538461538
 21
0.0
 31
0.0
  0
LINE
  5
EE
330
1F
100
AcDbEntity
  8
0
  6
Continuous
 62
     7
370
    25
100
AcDbLine
 10
156.1538461538
 20
0.0
 30
0.0
 11
152.5641025641
 21
0.0
 31
0.0
  0
LINE
  5
EF
330
1F
100
AcDbEntity
  8
0
  6
Continuous
 62
     7
370
    25
100
AcDbLine
 10
152.5641025641
 20
0.0
 30
0.0
 11
152.5641025641
 21
20.0
 31
0.0
  0
LINE
  5
F0
330
1F
100
AcDbEntity
  8
0
  6
Continuous
 62
     7
370
    25
100
AcDbLine
 10
138.2051282051
 20
20.0
 30
0.0
 11
148.9743589744
 21
20.0
 31
0.0
  0
LINE
  5
F1
330
1F
100
AcDbEntity
  8
0
  6
Continuous
 62
     7
370
    25
100
AcDbLine
 10
148.9743589744
 20
20.0
 30
0.0
 11
148.9743589744
 21
16.4102564103
 31
0.0
  0
LINE
  5
F2
330
1F
100
AcDbEntity
  8
0
  6
Continuous
 62
     7
370
    25
100
AcDbLine
 10
148.9743589744
 20
16.4102564103
 30
0.0
 11
141.7948717949
 21
16.4102564103
 31
0.0
  0
LINE
  5
F3
330
1F
100
AcDbEntity
  8
0
  6
Continuous
 62
     7
370
    25
100
AcDbLine
 10
141.7948717949
 20
16.4102564103
 30
0.0
 11
141.7948717949
 21
12.5641025641
 31
0.0
  0
LINE
  5
F4
330
1F
100
AcDbEntity
  8
0
  6
Continuous
 62
     7
370
    25
100
AcDbLine
 10
141.7948717949
 20
12.5641025641
 30
0.0
 11
148.9743589744
 21
12.5641025641
 31
0.0
  0
LINE
  5
F5
330
1F
100
AcDbEntity
  8
0
  6
Continuous
 62
     7
370
    25
100
AcDbLine
 10
148.9743589744
 20
12.5641025641
 30
0.0
 11
148.9743589744
 21
8.9743589744
 31
0.0
  0
LINE
  5
F6
330
1F
100
AcDbEntity
  8
0
  6
Continuous
 62
     7
370
    25
100
AcDbLine
 10
148.9743589744
 20
8.9743589744
 30
0.0
 11
141.7948717949
 21
8.9743589744
 31
0.0
  0
LINE
  5
F7
330
1F
100
AcDbEntity
  8
0
  6
Continuous
 62
     7
370
    25
100
AcDbLine
 10
141.7948717949
 20
8.9743589744
 30
0.0
 11
141.7948717949
 21
3.5897435897
 31
0.0
  0
LINE
  5
F8
330
1F
100
AcDbEntity
  8
0
  6
Continuous
 62
     7
370
    25
100
AcDbLine
 10
141.7948717949
 20
3.5897435897
 30
0.0
 11
148.9743589744
 21
3.5897435897
 31
0.0
  0
LINE
  5
F9
330
1F
100
AcDbEntity
  8
0
  6
Continuous
 62
     7
370
    25
100
AcDbLine
 10
148.9743589744
 20
3.5897435897
 30
0.0
 11
148.9743589744
 21
0.0
 31
0.0
  0
LINE
  5
FA
330
1F
100
AcDbEntity
  8
0
  6
Continuous
 62
     7
370
    25
100
AcDbLine
 10
148.9743589744
 20
0.0
 30
0.0
 11
138.2051282051
 21
0.0
 31
0.0
  0
LINE
  5
FB
330
1F
100
AcDbEntity
  8
0
  6
Continuous
 62
     7
370
    25
100
AcDbLine
 10
138.2051282051
 20
0.0
 30
0.0
 11
138.2051282051
 21
20.0
 31
0.0
  0
LINE
  5
FC
330
1F
100
AcDbEntity
  8
0
  6
Continuous
 62
     7
370
    25
100
AcDbLine
 10
124.6153846154
 20
20.0
 30
0.0
 11
135.3846153846
 21
20.0
 31
0.0
  0
LINE
  5
FD
330
1F
100
AcDbEntity
  8
0
  6
Continuous
 62
     7
370
    25
100
AcDbLine
 10
135.3846153846
 20
20.0
 30
0.0
 11
135.3846153846
 21
16.4102564103
 31
0.0
  0
LINE
  5
FE
330
1F
100
AcDbEntity
  8
0
  6
Continuous
 62
     7
370
    25
100
AcDbLine
 10
135.3846153846
 20
16.4102564103
 30
0.0
 11
131.7948717949
 21
16.4102564103
 31
0.0
  0
LINE
  5
FF
330
1F
100
AcDbEntity
  8
0
  6
Continuous
 62
     7
370
    25
100
AcDbLine
 10
131.7948717949
 20
16.4102564103
 30
0.0
 11
131.7948717949
 21
0.0
 31
0.0
  0
LINE
  5
100
330
1F
100
AcDbEntity
  8
0
  6
Continuous
 62
     7
370
    25
100
AcDbLine
 10
131.7948717949
 20
0.0
 30
0.0
 11
128.2051282051
 21
0.0
 31
0.0
  0
LINE
  5
101
330
1F
100
AcDbEntity
  8
0
  6
Continuous
 62
     7
370
    25
100
AcDbLine
 10
128.2051282051
 20
0.0
 30
0.0
 11
128.2051282051
 21
16.4102564103
 31
0.0
  0
LINE
  5
102
330
1F
100
AcDbEntity
  8
0
  6
Continuous
 62
     7
370
    25
100
AcDbLine
 10
128.2051282051
 20
16.4102564103
 30
0.0
 11
124.6153846154
 21
16.4102564103
 31
0.0
  0
LINE
  5
103
330
1F
100
AcDbEntity
  8
0
  6
Continuous
 62
     7
370
    25
100
AcDbLine
 10
124.6153846154
 20
16.4102564103
 30
0.0
 11
124.6153846154
 21
20.0
 31
0.0
  0
LINE
  5
104
330
1F
100
AcDbEntity
  8
0
  6
Continuous
 62
     7
370
    25
100
AcDbLine
 10
122.5641025641
 20
17.327724359
 30
0.0
 11
119.8798076923
 21
14.8717948718
 31
0.0
  0
LINE
  5
105
330
1F
100
AcDbEntity
  8
0
  6
Continuous
 62
     7
370
    25
100
AcDbLine
 10
110.7692307692
 20
3.7459935897
 30
0.0
 11
113.9262820513
 21
5.641025641
 31
0.0
  0
LINE
  5
106
330
1F
100
AcDbEntity
  8
0
  6
Continuous
 62
     7
370
    25
100
AcDbLine
 10
91.9230769231
 20
14.6354166667
 30
0.0
 11
88.9262820513
 21
7.6923076923
 31
0.0
  0
LINE
  5
107
330
1F
100
AcDbEntity
  8
0
  6
Continuous
 62
     7
370
    25
100
AcDbLine
 10
88.9262820513
 20
7.6923076923
 30
0.0
 11
94.9198717949
 21
7.6923076923
 31
0.0
  0
LINE
  5
108
330
1F
100
AcDbEntity
  8
0
  6
Continuous
 62
     7
370
    25
100
AcDbLine
 10
94.9198717949
 20
7.6923076923
 30
0.0
 11
91.9230769231
 21
14.6354166667
 31
0.0
  0
LINE
  5
109
330
1F
100
AcDbEntity
  8
0
  6
Continuous
 62
     7
370
    25
100
AcDbLine
 10
90.2604166667
 20
20.0
 30
0.0
 11
93.5897435897
 21
20.0
 31
0.0
  0
LINE
  5
10A
330
1F
100
AcDbEntity
  8
0
  6
Continuous
 62
     7
370
    25
100
AcDbLine
 10
101.6666666667
 20
0.0
 30
0.0
 11
97.8325320513
 21
0.0
 31
0.0
  0
LINE
  5
10B
330
1F
100
AcDbEntity
  8
0
  6
Continuous
 62
     7
370
    25
100
AcDbLine
 10
97.8325320513
 20
0.0
 30
0.0
 11
96.2780448718
 21
4.1025641026
 31
0.0
  0
LINE
  5
10C
330
1F
100
AcDbEntity
  8
0
  6
Continuous
 62
     7
370
    25
100
AcDbLine
 10
96.2780448718
 20
4.1025641026
 30
0.0
 11
87.5641025641
 21
4.1025641026
 31
0.0
  0
LINE
  5
10D
330
1F
100
AcDbEntity
  8
0
  6
Continuous
 62
     7
370
    25
100
AcDbLine
 10
87.5641025641
 20
4.1025641026
 30
0.0
 11
86.0096153846
 21
0.0
 31
0.0
  0
LINE
  5
10E
330
1F
100
AcDbEntity
  8
0
  6
Continuous
 62
     7
370
    25
100
AcDbLine
 10
86.0096153846
 20
0.0
 30
0.0
 11
82.1794871795
 21
0.0
 31
0.0
  0
LINE
  5
10F
330
1F
100
AcDbEntity
  8
0
  6
Continuous
 62
     7
370
    25
100
AcDbLine
 10
82.1794871795
 20
0.0
 30
0.0
 11
90.2604166667
 21
20.0
 31
0.0
  0
LINE
  5
110
330
1F
100
AcDbEntity
  8
0
  6
Continuous
 62
     7
370
    25
100
AcDbLine
 10
93.5897435897
 20
20.0
 30
0.0
 11
101.6666666667
 21
0.0
 31
0.0
  0
LINE
  5
111
330
1F
100
AcDbEntity
  8
0
  6
Continuous
 62
     7
370
    25
100
AcDbLine
 10
60.8133012821
 20
20.0
 30
0.0
 11
64.5392628205
 21
20.0
 31
0.0
  0
LINE
  5
112
330
1F
100
AcDbEntity
  8
0
  6
Continuous
 62
     7
370
    25
100
AcDbLine
 10
64.5392628205
 20
20.0
 30
0.0
 11
69.1025641026
 21
6.0496794872
 31
0.0
  0
LINE
  5
113
330
1F
100
AcDbEntity
  8
0
  6
Continuous
 62
     7
370
    25
100
AcDbLine
 10
69.1025641026
 20
6.0496794872
 30
0.0
 11
73.6979166667
 21
20.0
 31
0.0
  0
LINE
  5
114
330
1F
100
AcDbEntity
  8
0
  6
Continuous
 62
     7
370
    25
100
AcDbLine
 10
73.6979166667
 20
20.0
 30
0.0
 11
77.3878205128
 21
20.0
 31
0.0
  0
LINE
  5
115
330
1F
100
AcDbEntity
  8
0
  6
Continuous
 62
     7
370
    25
100
AcDbLine
 10
77.3878205128
 20
20.0
 30
0.0
 11
80.7692307692
 21
0.0
 31
0.0
  0
LINE
  5
116
330
1F
100
AcDbEntity
  8
0
  6
Continuous
 62
     7
370
    25
100
AcDbLine
 10
80.7692307692
 20
0.0
 30
0.0
 11
77.1354166667
 21
0.0
 31
0.0
  0
LINE
  5
117
330
1F
100
AcDbEntity
  8
0
  6
Continuous
 62
     7
370
    25
100
AcDbLine
 10
77.1354166667
 20
0.0
 30
0.0
 11
75.0
 21
12.6322115385
 31
0.0
  0
LINE
  5
118
330
1F
100
AcDbEntity
  8
0
  6
Continuous
 62
     7
370
    25
100
AcDbLine
 10
75.0
 20
12.6322115385
 30
0.0
 11
70.8413461538
 21
0.0
 31
0.0
  0
LINE
  5
119
330
1F
100
AcDbEntity
  8
0
  6
Continuous
 62
     7
370
    25
100
AcDbLine
 10
70.8413461538
 20
0.0
 30
0.0
 11
67.3397435897
 21
0.0
 31
0.0
  0
LINE
  5
11A
330
1F
100
AcDbEntity
  8
0
  6
Continuous
 62
     7
370
    25
100
AcDbLine
 10
67.3397435897
 20
0.0
 30
0.0
 11
63.2051282051
 21
12.6322115385
 31
0.0
  0
LINE
  5
11B
330
1F
100
AcDbEntity
  8
0
  6
Continuous
 62
     7
370
    25
100
AcDbLine
 10
63.2051282051
 20
12.6322115385
 30
0.0
 11
61.0737179487
 21
0.0
 31
0.0
  0
LINE
  5
11C
330
1F
100
AcDbEntity
  8
0
  6
Continuous
 62
     7
370
    25
100
AcDbLine
 10
61.0737179487
 20
0.0
 30
0.0
 11
57.4358974359
 21
0.0
 31
0.0
  0
LINE
  5
11D
330
1F
100
AcDbEntity
  8
0
  6
Continuous
 62
     7
370
    25
100
AcDbLine
 10
57.4358974359
 20
0.0
 30
0.0
 11
60.8133012821
 21
20.0
 31
0.0
  0
LINE
  5
11E
330
1F
100
AcDbEntity
  8
0
  6
Continuous
 62
     7
370
    25
100
AcDbLine
 10
35.9415064103
 20
20.0
 30
0.0
 11
39.6674679487
 21
20.0
 31
0.0
  0
LINE
  5
11F
330
1F
100
AcDbEntity
  8
0
  6
Continuous
 62
     7
370
    25
100
AcDbLine
 10
39.6674679487
 20
20.0
 30
0.0
 11
44.2307692308
 21
6.0496794872
 31
0.0
  0
LINE
  5
120
330
1F
100
AcDbEntity
  8
0
  6
Continuous
 62
     7
370
    25
100
AcDbLine
 10
44.2307692308
 20
6.0496794872
 30
0.0
 11
48.8261217949
 21
20.0
 31
0.0
  0
LINE
  5
121
330
1F
100
AcDbEntity
  8
0
  6
Continuous
 62
     7
370
    25
100
AcDbLine
 10
52.516025641
 20
20.0
 30
0.0
 11
55.8974358974
 21
0.0
 31
0.0
  0
LINE
  5
122
330
1F
100
AcDbEntity
  8
0
  6
Continuous
 62
     7
370
    25
100
AcDbLine
 10
55.8974358974
 20
0.0
 30
0.0
 11
52.2636217949
 21
0.0
 31
0.0
  0
LINE
  5
123
330
1F
100
AcDbEntity
  8
0
  6
Continuous
 62
     7
370
    25
100
AcDbLine
 10
52.2636217949
 20
0.0
 30
0.0
 11
50.1282051282
 21
12.6322115385
 31
0.0
  0
LINE
  5
124
330
1F
100
AcDbEntity
  8
0
  6
Continuous
 62
     7
370
    25
100
AcDbLine
 10
50.1282051282
 20
12.6322115385
 30
0.0
 11
45.9695512821
 21
0.0
 31
0.0
  0
LINE
  5
125
330
1F
100
AcDbEntity
  8
0
  6
Continuous
 62
     7
370
    25
100
AcDbLine
 10
45.9695512821
 20
0.0
 30
0.0
 11
42.4679487179
 21
0.0
 31
0.0
  0
LINE
  5
126
330
1F
100
AcDbEntity
  8
0
  6
Continuous
 62
     7
370
    25
100
AcDbLine
 10
42.4679487179
 20
0.0
 30
0.0
 11
38.3333333333
 21
12.6322115385
 31
0.0
  0
LINE
  5
127
330
1F
100
AcDbEntity
  8
0
  6
Continuous
 62
     7
370
    25
100
AcDbLine
 10
38.3333333333
 20
12.6322115385
 30
0.0
 11
36.2019230769
 21
0.0
 31
0.0
  0
LINE
  5
128
330
1F
100
AcDbEntity
  8
0
  6
Continuous
 62
     7
370
    25
100
AcDbLine
 10
36.2019230769
 20
0.0
 30
0.0
 11
32.5641025641
 21
0.0
 31
0.0
  0
LINE
  5
129
330
1F
100
AcDbEntity
  8
0
  6
Continuous
 62
     7
370
    25
100
AcDbLine
 10
32.5641025641
 20
0.0
 30
0.0
 11
35.9415064103
 21
20.0
 31
0.0
  0
LINE
  5
12A
330
1F
100
AcDbEntity
  8
0
  6
Continuous
 62
     7
370
    25
100
AcDbLine
 10
48.8261217949
 20
20.0
 30
0.0
 11
52.516025641
 21
20.0
 31
0.0
  0
LINE
  5
12B
330
1F
100
AcDbEntity
  8
0
  6
Continuous
 62
     7
370
    25
100
AcDbLine
 10
16.6666666667
 20
20.0
 30
0.0
 11
20.2564102564
 21
20.0
 31
0.0
  0
LINE
  5
12C
330
1F
100
AcDbEntity
  8
0
  6
Continuous
 62
     7
370
    25
100
AcDbLine
 10
20.2564102564
 20
20.0
 30
0.0
 11
20.2564102564
 21
6.9871794872
 31
0.0
  0
LINE
  5
12D
330
1F
100
AcDbEntity
  8
0
  6
Continuous
 62
     7
370
    25
100
AcDbLine
 10
26.1538461538
 20
7.4639423077
 30
0.0
 11
26.1538461538
 21
20.0
 31
0.0
  0
LINE
  5
12E
330
1F
100
AcDbEntity
  8
0
  6
Continuous
 62
     7
370
    25
100
AcDbLine
 10
29.7435897436
 20
20.0
 30
0.0
 11
29.7435897436
 21
8.0689102564
 31
0.0
  0
LINE
  5
12F
330
1F
100
AcDbEntity
  8
0
  6
Continuous
 62
     7
370
    25
100
AcDbLine
 10
16.6666666667
 20
8.0689102564
 30
0.0
 11
16.6666666667
 21
20.0
 31
0.0
  0
LINE
  5
130
330
1F
100
AcDbEntity
  8
0
  6
Continuous
 62
     7
370
    25
100
AcDbLine
 10
26.1538461538
 20
20.0
 30
0.0
 11
29.7435897436
 21
20.0
 31
0.0
  0
LINE
  5
131
330
1F
100
AcDbEntity
  8
0
  6
Continuous
 62
     7
370
    25
100
AcDbLine
 10
0.7692307692
 20
3.7459935897
 30
0.0
 11
3.9262820513
 21
5.641025641
 31
0.0
  0
LINE
  5
132
330
1F
100
AcDbEntity
  8
0
  6
Continuous
 62
     7
370
    25
100
AcDbLine
 10
12.5641025641
 20
17.327724359
 30
0.0
 11
9.8798076923
 21
14.8717948718
 31
0.0
  0
MTEXT
  5
134
330
1F
100
AcDbEntity
  8
0
  6
Continuous
 62
     7
100
AcDbMText
 10
0.7692307692
 20
-1.5323869045
 30
0.0
 40
4.83362
 41
0.0
 71
     1
 72
     1
  1
SOLIDWORKS Educational Product.
  7
SLDTEXTSTYLE0
 73
     1
 44
1.0
  0
MTEXT
  5
135
330
1F
100
AcDbEntity
  8
0
  6
Continuous
 62
     7
100
AcDbMText
 10
0.7692307692
 20
-8.7828169045
 30
0.0
 40
4.83362
 41
0.0
 71
     1
 72
     1
  1
For Instructional Use Only.
  7
SLDTEXTSTYLE0
 73
     1
 44
1.0
  0
ENDSEC
  0
SECTION
  2
OBJECTS
  0
DICTIONARY
  5
C
330
0
100
AcDbDictionary
281
     1
  3
ACAD_GROUP
350
D
  3
ACAD_LAYOUT
350
1A
  3
ACAD_MLINESTYLE
350
17
  3
ACAD_PLOTSETTINGS
350
19
  3
ACAD_PLOTSTYLENAME
350
E
  3
ACAD_SCALELIST
350
47
  0
DICTIONARY
  5
D
102
{ACAD_REACTORS
330
C
102
}
330
C
100
AcDbDictionary
281
     1
  0
DICTIONARY
  5
1A
102
{ACAD_REACTORS
330
C
102
}
330
C
100
AcDbDictionary
281
     1
  3
Layout1
350
1E
  3
Layout2
350
26
  3
Model
350
22
  0
DICTIONARY
  5
17
102
{ACAD_REACTORS
330
C
102
}
330
C
100
AcDbDictionary
281
     1
  3
Standard
350
18
  0
DICTIONARY
  5
19
102
{ACAD_REACTORS
330
C
102
}
330
C
100
AcDbDictionary
281
     1
  0
ACDBDICTIONARYWDFLT
  5
E
102
{ACAD_REACTORS
330
C
102
}
330
C
100
AcDbDictionary
281
     1
  3
Normal
350
F
100
AcDbDictionaryWithDefault
340
F
  0
DICTIONARY
  5
47
102
{ACAD_REACTORS
330
C
102
}
330
C
100
AcDbDictionary
281
     1
  3
A0
350
48
  3
A1
350
49
  3
A2
350
4A
  3
A3
350
4B
  3
A4
350
4C
  3
A5
350
4D
  3
A6
350
4E
  3
A7
350
4F
  3
A8
350
50
  3
A9
350
51
  3
B0
350
52
  3
B1
350
53
  3
B2
350
54
  3
B3
350
55
  3
B4
350
56
  3
B5
350
57
  3
B6
350
58
  3
B7
350
59
  3
B8
350
5A
  3
B9
350
5B
  3
C0
350
5C
  3
C1
350
5D
  3
C2
350
5E
  3
C3
350
5F
  3
C4
350
60
  3
C5
350
61
  3
C6
350
62
  3
C7
350
63
  3
C8
350
64
  3
C9
350
65
  3
D0
350
66
  3
D1
350
67
  3
D2
350
68
  0
LAYOUT
  5
1E
102
{ACAD_REACTORS
330
1A
102
}
330
1A
100
AcDbPlotSettings
  1

  2
none_device
  4

  6

 40
0.0
 41
0.0
 42
0.0
 43
0.0
 44
0.0
 45
0.0
 46
0.0
 47
0.0
 48
0.0
 49
0.0
140
0.0
141
0.0
142
1.0
143
1.0
 70
   688
 72
     1
 73
     0
 74
     5
  7

 75
    16
147
1.0
148
0.0
149
0.0
100
AcDbLayout
  1
Layout1
 70
     1
 71
     1
 10
0.0
 20
0.0
 11
420.0
 21
297.0
 12
0.0
 22
0.0
 32
0.0
 14
1.0000000000E+20
 24
1.0000000000E+20
 34
1.0000000000E+20
 15
-1.0000000000E+20
 25
-1.0000000000E+20
 35
-1.0000000000E+20
146
0.0
 13
0.0
 23
0.0
 33
0.0
 16
1.0
 26
0.0
 36
0.0
 17
0.0
 27
1.0
 37
0.0
 76
     0
330
1B
  0
LAYOUT
  5
26
102
{ACAD_REACTORS
330
1A
102
}
330
1A
100
AcDbPlotSettings
  1

  2
none_device
  4

  6

 40
0.0
 41
0.0
 42
0.0
 43
0.0
 44
0.0
 45
0.0
 46
0.0
 47
0.0
 48
0.0
 49
0.0
140
0.0
141
0.0
142
1.0
143
1.0
 70
   688
 72
     1
 73
     0
 74
     5
  7

 75
    16
147
1.0
148
0.0
149
0.0
100
AcDbLayout
  1
Layout2
 70
     1
 71
     2
 10
0.0
 20
0.0
 11
0.0
 21
0.0
 12
0.0
 22
0.0
 32
0.0
 14
0.0
 24
0.0
 34
0.0
 15
0.0
 25
0.0
 35
0.0
146
0.0
 13
0.0
 23
0.0
 33
0.0
 16
1.0
 26
0.0
 36
0.0
 17
0.0
 27
1.0
 37
0.0
 76
     0
330
23
  0
LAYOUT
  5
22
102
{ACAD_REACTORS
330
1A
102
}
330
1A
100
AcDbPlotSettings
  1

  2
none_device
  4
ANSI_A_(11.00_x_8.50_Inches)
  6

 40
6.35
 41
19.05
 42
6.35000508
 43
19.05000254
 44
279.4
 45
215.9
 46
-6.2425410015
 47
72.13599873
 48
0.0
 49
0.0
140
0.0
141
0.0
142
0.066
143
1.0
 70
  1696
 72
     0
 73
     0
 74
     0
  7

 75
     0
147
0.0179189148
148
-1300.4909072572
149
0.0
100
AcDbLayout
  1
Model
 70
     1
 71
     0
 10
0.0
 20
0.0
 11
420.0
 21
297.0
 12
0.0
 22
0.0
 32
0.0
 14
0.7692307692
 24
-0.5128205128
 34
0.0
 15
165.7692307692
 25
20.5128205128
 35
0.0
146
0.0
 13
0.0
 23
0.0
 33
0.0
 16
1.0
 26
0.0
 36
0.0
 17
0.0
 27
1.0
 37
0.0
 76
     0
330
1F
331
29
  0
MLINESTYLE
  5
18
102
{ACAD_REACTORS
330
17
102
}
330
17
100
AcDbMlineStyle
  2
Standard
 70
     0
  3

 62
   256
 51
90.0
 52
90.0
 71
     2
 49
0.5
 62
   256
  6
BYLAYER
 49
-0.5
 62
   256
  6
BYLAYER
  0
ACDBPLACEHOLDER
  5
F
102
{ACAD_REACTORS
330
E
102
}
330
E
  0
SCALE
  5
48
102
{ACAD_REACTORS
330
47
102
}
330
47
100
AcDbScale
 70
     0
300
1:1
140
1.0
141
1.0
290
     1
  0
SCALE
  5
49
102
{ACAD_REACTORS
330
47
102
}
330
47
100
AcDbScale
 70
     0
300
1:2
140
1.0
141
2.0
290
     0
  0
SCALE
  5
4A
102
{ACAD_REACTORS
330
47
102
}
330
47
100
AcDbScale
 70
     0
300
1:4
140
1.0
141
4.0
290
     0
  0
SCALE
  5
4B
102
{ACAD_REACTORS
330
47
102
}
330
47
100
AcDbScale
 70
     0
300
1:5
140
1.0
141
5.0
290
     0
  0
SCALE
  5
4C
102
{ACAD_REACTORS
330
47
102
}
330
47
100
AcDbScale
 70
     0
300
1:8
140
1.0
141
8.0
290
     0
  0
SCALE
  5
4D
102
{ACAD_REACTORS
330
47
102
}
330
47
100
AcDbScale
 70
     0
300
1:10
140
1.0
141
10.0
290
     0
  0
SCALE
  5
4E
102
{ACAD_REACTORS
330
47
102
}
330
47
100
AcDbScale
 70
     0
300
1:16
140
1.0
141
16.0
290
     0
  0
SCALE
  5
4F
102
{ACAD_REACTORS
330
47
102
}
330
47
100
AcDbScale
 70
     0
300
1:20
140
1.0
141
20.0
290
     0
  0
SCALE
  5
50
102
{ACAD_REACTORS
330
47
102
}
330
47
100
AcDbScale
 70
     0
300
1:30
140
1.0
141
30.0
290
     0
  0
SCALE
  5
51
102
{ACAD_REACTORS
330
47
102
}
330
47
100
AcDbScale
 70
     0
300
1:40
140
1.0
141
40.0
290
     0
  0
SCALE
  5
52
102
{ACAD_REACTORS
330
47
102
}
330
47
100
AcDbScale
 70
     0
300
1:50
140
1.0
141
50.0
290
     0
  0
SCALE
  5
53
102
{ACAD_REACTORS
330
47
102
}
330
47
100
AcDbScale
 70
     0
300
1:100
140
1.0
141
100.0
290
     0
  0
SCALE
  5
54
102
{ACAD_REACTORS
330
47
102
}
330
47
100
AcDbScale
 70
     0
300
2:1
140
2.0
141
1.0
290
     0
  0
SCALE
  5
55
102
{ACAD_REACTORS
330
47
102
}
330
47
100
AcDbScale
 70
     0
300
4:1
140
4.0
141
1.0
290
     0
  0
SCALE
  5
56
102
{ACAD_REACTORS
330
47
102
}
330
47
100
AcDbScale
 70
     0
300
8:1
140
8.0
141
1.0
290
     0
  0
SCALE
  5
57
102
{ACAD_REACTORS
330
47
102
}
330
47
100
AcDbScale
 70
     0
300
10:1
140
10.0
141
1.0
290
     0
  0
SCALE
  5
58
102
{ACAD_REACTORS
330
47
102
}
330
47
100
AcDbScale
 70
     0
300
100:1
140
100.0
141
1.0
290
     0
  0
SCALE
  5
59
102
{ACAD_REACTORS
330
47
102
}
330
47
100
AcDbScale
 70
     0
300
1/128" = 1'-0"
140
0.0078125
141
12.0
290
     0
  0
SCALE
  5
5A
102
{ACAD_REACTORS
330
47
102
}
330
47
100
AcDbScale
 70
     0
300
1/64" = 1'-0"
140
0.015625
141
12.0
290
     0
  0
SCALE
  5
5B
102
{ACAD_REACTORS
330
47
102
}
330
47
100
AcDbScale
 70
     0
300
1/32" = 1'-0"
140
0.03125
141
12.0
290
     0
  0
SCALE
  5
5C
102
{ACAD_REACTORS
330
47
102
}
330
47
100
AcDbScale
 70
     0
300
1/16" = 1'-0"
140
0.0625
141
12.0
290
     0
  0
SCALE
  5
5D
102
{ACAD_REACTORS
330
47
102
}
330
47
100
AcDbScale
 70
     0
300
3/32" = 1'-0"
140
0.09375
141
12.0
290
     0
  0
SCALE
  5
5E
102
{ACAD_REACTORS
330
47
102
}
330
47
100
AcDbScale
 70
     0
300
1/8" = 1'-0"
140
0.125
141
12.0
290
     0
  0
SCALE
  5
5F
102
{ACAD_REACTORS
330
47
102
}
330
47
100
AcDbScale
 70
     0
300
3/16" = 1'-0"
140
0.1875
141
12.0
290
     0
  0
SCALE
  5
60
102
{ACAD_REACTORS
330
47
102
}
330
47
100
AcDbScale
 70
     0
300
1/4" = 1'-0"
140
0.25
141
12.0
290
     0
  0
SCALE
  5
61
102
{ACAD_REACTORS
330
47
102
}
330
47
100
AcDbScale
 70
     0
300
3/8" = 1'-0"
140
0.375
141
12.0
290
     0
  0
SCALE
  5
62
102
{ACAD_REACTORS
330
47
102
}
330
47
100
AcDbScale
 70
     0
300
1/2" = 1'-0"
140
0.5
141
12.0
290
     0
  0
SCALE
  5
63
102
{ACAD_REACTORS
330
47
102
}
330
47
100
AcDbScale
 70
     0
300
3/4" = 1'-0"
140
0.75
141
12.0
290
     0
  0
SCALE
  5
64
102
{ACAD_REACTORS
330
47
102
}
330
47
100
AcDbScale
 70
     0
300
1" = 1'-0"
140
1.0
141
12.0
290
     0
  0
SCALE
  5
65
102
{ACAD_REACTORS
330
47
102
}
330
47
100
AcDbScale
 70
     0
300
1-1/2" = 1'-0"
140
1.5
141
12.0
290
     0
  0
SCALE
  5
66
102
{ACAD_REACTORS
330
47
102
}
330
47
100
AcDbScale
 70
     0
300
3" = 1'-0"
140
3.0
141
12.0
290
     0
  0
SCALE
  5
67
102
{ACAD_REACTORS
330
47
102
}
330
47
100
AcDbScale
 70
     0
300
6" = 1'-0"
140
6.0
141
12.0
290
     0
  0
SCALE
  5
68
102
{ACAD_REACTORS
330
47
102
}
330
47
100
AcDbScale
 70
     0
300
1'-0" = 1'-0"
140
12.0
141
12.0
290
     0
  0
ENDSEC
  0
EOF
